Oops, an error
Loading. Please wait.

Tear In My Heart Tab

version 1
version 1

Solo

Interactive

1,498 views 93 this week
no commentswrite comment
1 2 3 4 5
x 8
add to favorites
launch autoscroll
font size
0
reset
how to read this tab
guitar tuner
Autoscroll
slow
fast
+/-
esc
set tempo
stop
Help us to improve Ultimate-Guitar.com Take our survey!
×
Author
Difficulty
intermediate
Hello this is the thingy that is played on the choruses starting from the second one. If you dunno what I mean
it's probably most prominently heard at 2:10 in the song. 

[Solo]

  G                         A          Bm                      C#m
e|-------------------------|----------|-----------------------|-----------|
B|-------------------------|----------|-----------------------|-----------|
G|-7-6---7-6---7-6---7-6---|-7-6---6--|-7-6---7-6---7-6---7-6-|---9-7-6-7-|
D|-----7-----7-----7-----7-|-----9----|-----9-----9-----9-----|-9---------|
A|-------------------------|----------|-----------------------|-----------|
E|-------------------------|----------|-----------------------|-----------|
 
  D                      A 
e|----------------------|--------------------|
B|----------------------|--------------------|
G|-11-7----11-7----11-7-|9-7---9-7---9-7-----|
D|------7-------7-------|----7-----7---------|
A|----------------------|--------------------|
E|----------------------|--------------------|
Suggest correction
comments
print report bad tab
guest
You may want to rate the tab now too:
select rating
Wanna post a correction for this tab? Suggest correction