Oops, an error
Loading. Please wait.
We have an official Tear In My Heart tab made by UG professional guitarists. Check out the tab »
×

Tear In My Heart bass

version 4
version 4

Whole song

Interactive

586 views 9 this week
no commentswrite comment
1 2 3 4 5
3 more votes to show rating
add to favorites
×
Save as Personal and add changes to this tab that will be seen only by you. Learn more ›
×
You can save this tab as Personal to edit and correct it or add notes. All changes will be seen only by you. Learn more »
launch autoscroll
font size
0
reset
guitar tuner
edit
Autoscroll
slow
fast
+/-
esc
set tempo
stop
About this tab version
This version is correct, and details where each par should play alongside the lyrics. Was this info helpful? Yes No
Tab of bass line for "Tear in my Heart" by Twenty Øne Piløts.
Please rate and comment if you like this tab.


[Intro]

   An-nyŏng-ha-se-yo
G|-------------------|------------------|----------------|------------------|
D|-------------------|-0-0-0-4-4-4-5-5--|----------------|-0-0-0-4-4-4-5-5--|
A|-------------------|------------------|----------------|------------------|
E|-------------------|------------------|----------------|------------------|


[Verse 1]

  Sometimes you've                     That you're alive 
   got to bleed to  know                   and  have  a   soul
G|-----------------|------------------|------------------|------------------|
D|-----------------|-0-0-0-4-4-4-5-5--|------------------|-0-0-0-4-4-4-5-5--|
A|-----------------|------------------|------------------|------------------|
E|-----------------|------------------|------------------|------------------|


   But it takes someone to come around, to show you how.  
                                                        She's the tear in my
G|----------------------------|---------------------|--------------------------|
D|----------------------------|---------------------|-7-7-7-7-7-7-7-7----------|
A|----------------------------|--0-0-0-0-0-0-0-0-/5-|--------------------------|
E|----------------------------|---------------------|--------------------------|


[Chorus]

  Heart. I'm alive, she's the tear                     She's the tear in my heart, take me 
                            in my heart, I'm on fire.                               higher than I've ever been
G|-----------------|-----------------|-----------------|-----------------|-----------------|---------------|
D|-----------------|-----------------|-----------------|-----------------|-----------------|---------------|
A|-----------------|-----------------|-2-2-2-2-2-2-2-2-|-2-2-2-2-4-4-4-4-|-5-5-5-5-5-5-5-5-|---------------|
E|-3-3-3-3-3-3-3-3-|-3-3-3-3-5-5-5-5-|-----------------|-----------------|-----------------|-5-5-5-5-------|

G|---------------------------------------------------------------------------|
D|---------------------------------------------------------------------------|
A|---------------------------------------------------------------------------|
E|---------------------------------------------------------------------------|

[Verse 2]

                    The songs on the                     But my taste in 
                       radio are okay                    music is your face
   
G|-----------------|------------------|------------------|------------------|-----------------|
D|-0-0-0-4-4-4-5-5-|------------------|-0-0-0-4-4-4-5-5--|------------------|-----------------|
A|-----------------|------------------|------------------|------------------|-5-5-5-----------|
E|-----------------|------------------|------------------|------------------|-------2-2-2-3-3-|


   And it takes a song to come  around, to show you how.  
                                                      She's the tear in my
G|----------------------------|---------------------|--------------------------|
D|----------------------------|---------------------|-7-7-7-7-7-7-7-7----------|
A|----------------------------|--0-0-0-0-0-0-0-0-/5-|--------------------------|
E|----------------------------|---------------------|--------------------------|


[Chorus 2] As Chorus 1 X2



[Bridge]

G|-------------|--------------|----------------|--------------|
D|-------------|--------------|-------4-4--5-5-|--------------|
A|-5--5--5--5--|--5--5--5--5--|5--5-5----------|-5--5--5--5---|  [x1]
E|-------------|-------------5|----------------|------------5-|


 You fell asleep    car I drove   But that's OK      the holes so
      in my        the whole time  I'll just avoid   you sleep fine
                   
G|----------------|--------------|-----------------|--------------|
D|-------4-4--5-5-|--------------|--------4-4--5-5-|--------------|      [x3]
A|5--5-5----------|-5--5--5--5---|-5--5-5----------|--5--5--5--5--|
E|----------------|------------5-|-----------------|-------------5|


  I'm driving       Cursing my     For not using   To fill holes
       here I sit    Government     my taxes        With more cement!

G|----------------|--------------|--------------|--------------------|
D|-------4-4--5-5-|--------------|--------------|--------7-7-7-7-7-7-|
A|5--5-5----------|-5--5--5--5-5-|--------------|--------------------|
E|----------------|--------------|--5--5--5--5--|--5--5--------------|



                    Sometimes you've                      That you're alive 
                   got to bleed to  know                   and  have  a   soul
G|-----------------|------------------|------------------|------------------|
D|-----------------|------------------|------------------|------------------|
A|-----------------|------------------|------------------|------------------|
E|-----------------|------------------|------------------|------------------|


   But it takes someone to come around, to show you how.  
                                                        She's the tear in my
G|-------------|---------------|---------------------|--------------------------|
D|-------------|---------------|---------------------|-7-7-7-7-7-7-7-7----------|
A|-------------|---------------|--0-0-0-0-0-0-0-0-/5-|--------------------------|
E|-------------|---------------|---------------------|--------------------------|

[Chorus 3]


  Heart. I'm alive, she's the tear                     She's the tear in my heart, take me 
                            in my heart, I'm on fire.                               higher than I've ever been
G|-----------------|-----------------|-----------------|-----------------|-----------------|---------------|
D|-----------------|-----------------|-----------------|-----------------|-----------------|---------------|
A|-----------------|-----------------|-2---------------|---------4-------|-5---------------|---------------|
E|-3---------------|---------5-------|-----------------|-----------------|-----------------|-5-------/0----|



  My heart           She's the         heart,            She's a butcher    smile,
        is my armor   tear in my        she's a carver     with a         Cut me farther   than I've ever been
G|-----------------|-----------------|-----------------|-----------------|-----------------|----------------|
D|-----------------|-----------------|-----------------|-----------------|-----------------|----------------|
A|-----------------|-----------------|-2-2-2-2-2-2-2-2-|-2-2-2-2-4-4-4-4-|-5-5-5-5-5-5-5-5-|----------------|
E|-3-3-3-3-3-3-3-3-|-3-3-3-3-5-5-5-5-|-----------------|-----------------|-----------------|-5-5-5-5-5-5-5-5|

                    Then I've ever been                 Then I've ever been                 Oh - Then I've 
                                                                                                ever been
G|-----------------|-----------------|-----------------|-----------------|-----------------|-2-2-2-2-2-2-2-2|
D|-----------------|-----------------|-----------------|-----------------|-----------------|----------------|
A|-----------------|-----------------|-2-2-2-2-2-2-2-2-|-2-2-2-2-4-4-4-4-|-5-5-5-5-5-5-5-5-|----------------|
E|-3-3-3-3-3-3-3-3-|-3-3-3-3-5-5-5-5-|-----------------|-----------------|-----------------|----------------|


My heart is my armor
She's the tear in my heart. She's a carver,
She's a butcher with a smile. Cut me farther than I've ever been


************************************

| /   Slide up
| \   Slide down

************************************

            
            
Suggest correction
Creating personal tab
Creating personal tab
You can edit any tab online and save it as your Personal.

You can edit, replace or remove any tab part or add personal notes – all changes will be seen only by you.

Personal tabs can be accessed anytime from any device, even offline.
Learn more »
Give kudos to tab author, rate the tab!
1 2 3 4 5
comments
print report bad tab
guest
You may want to rate the tab now too:
select rating
Wanna post a correction for this tab? Suggest correction