Oops, an error
Loading. Please wait.

The Judge bass

version 1
version 1

Whole song

Interactive

5,989 views 75 this week
2 commentsread comments
1 2 3 4 5
x 8
add to favorites
×
Save as Personal and add changes to this tab that will be seen only by you. Learn more ›
×
You can save this tab as Personal to edit and correct it or add notes. All changes will be seen only by you. Learn more »
launch autoscroll
font size
0
reset
guitar tuner
edit
Autoscroll
slow
fast
+/-
esc
set tempo
stop
I uploaded a play-through of my tab on YouTube! Check it out here: https://www.youtube.com/watch?v=LrBWSCgCssQ

Bass comes in at 1:01
Pre-Chorus 1:
G|--------------|
D|----9~7h9p7~--|
A|/7~---------10|
E|--------------|

Chorus 1:
G|----------------------------------------------------------------|
D|---------5-5-7-7-----------5-5-7-7------5-5-------7-------------|
A|-8-8-3-3----------8-8-3-3-----------8-8------3-3-----8~---------|
E|-------------------------------------------------------8h10p8\1~|

After-Chorus 1:
G|----------------------------------------------------------------|
D|----------------------------------------------------------------|
A|----------------3-3-3-3-3-3-5-5-----------------3-3-3-3-3-3-5-5-|
E|5-5-5-5-5-5-3-3-----------------5-5-5-5-5-5-3-3-----------------|

Verse 2:
G|-------------------------------------------------|
D|-------------------------------------------------|
A|-----------5------------5------------5-----------|
E|5\---3-8~----5\---3-8~----5\---3-8~----5\---3-8~-|

Pre-Chorus 2:
G|-------------|
D|---9~7h9p7~--|
A|7~---------10|
E|-------------|

Chorus 2:
G|----------------------------------------------------------------|
D|---------5-5-7-7-----------5-5-7-7------5-5-------7-------------|
A|-8-8-3-3----------8-8-3-3-----------8-8------3-3-----8~---------|
E|-------------------------------------------------------8h10p8\1~|

Verse 3:
G|---------------------------------------------------------------|
D|---------------------------------------------------------------|
A|-----------5-5-5-------------5-5-5-------------5-5-5-----------|
E|5\---3-8~--------5\---3-8~---------5\---3-8~---------5\---3-8~-|

G|------------------------------------------------------------|
D|------------------------------------------------------------|
A|5-5-5-5-5-5-5-5-5-5-5-5-5-5-5-5-5-5-5-5-5-5-5-5-5-5-5-5-5-5-|
E|------------------------------------------------------------|

Bridge:
G|-----------------------------------------------------------------------|
D|-----------------------------------------------------------------------|
A|---------3-3-3-5\---------3-3-3---------3-3---------------3-3----------|
E|-5-5-1-1----------5-5-1-1-------3--1-1-------3-3-5-5-1-1-------3-3-5-5-|

G|---10-9-7-------9-7----------------------|
D|--------------------10-9-7-3--3--3--3--3-|
A|/8---------8h10--------------------------|
E|-----------------------------------------|

Rest. Bass enters at 3:57
Verse 4:
G|-------------------------------------------------------------------------------------------------|
D|-----------------5-5-5-5-7-7-7-7-----------------5-5-5-5-7-7-7-7-----------------5-5-5-5-7-7-7-7-|
A|/8-8-8-8-3-3-3-3-----------------8-8-8-8-3-3-3-3-------------------8-8-8-3-3-3-3-----------------|
E|-------------------------------------------------------------------------------------------------|

G|----------------------------------------------------------------------------------------------------|
D|----------------5-5-5-5-7-7-7-7-----------------5-5-5-5-7-7-7-7------------------5-5-5-5-7-7-7-7----|
A|8-8-8-8-3-3-3-3-----------------8-8-8-8-3-3-3-3------------------8-8-8-8-3-3-3-3-----------------3~-|
E|----------------------------------------------------------------------------------------------------|



************************************

| h   Hammer-on
| p   Pull-off
| /   Slide up
| \   Slide down
| ~   Sustain

************************************
Suggest correction
Creating personal tab
Creating personal tab
You can edit any tab online and save it as your Personal.

You can edit, replace or remove any tab part or add personal notes – all changes will be seen only by you.

Personal tabs can be accessed anytime from any device, even offline.
Learn more »
comments
print report bad tab
2 comments total.
0 reply
loloempia 10 Aug 15, 2016 11:19 AM

woohoo thanks a lot!

0 reply
Iamaguy 223 Aug 31, 2016 09:25 AM

pretty good

guest
You may want to rate the tab now too:
select rating
Wanna post a correction for this tab? Suggest correction