Oops, an error
Loading. Please wait.

The Judge Tab

version 1
version 1

Solo

1,636 views 51 this week
no commentswrite comment
1 2 3 4 5
x 6
add to favorites
launch autoscroll
font size
0
reset
how to read this tab
guitar tuner
×
Best way to learn
"The Judge"
Autoscroll
slow
fast
+/-
esc
set tempo
stop
Author
Difficulty
  follow
intermediate
e|-----------------------8b10-8~---------------------------------|
B|--------------------8------------------------------------------|
G|-----------------/9--------------------------------------------|
D|--5-5-7~-------------------------------------------------------|
A|---------7-7~--------------------------------------------------|
E|---------------------------------------------------------------|
Repeat once ^^^
e|--------6----------------5-------------------------------------|
B|--------6--9-7--5--4-----5-7-5-4----4~-------------------------|
G|--5-7~-----9-7--5--4---7---7-5-4-7--4~--7~---------------------|
D|--5-7~-----------------7---------7------7~---------------------|
A|---------------------------------------------------------------|
E|---------------------------------------------------------------|

All this is is the chorus, working on more
Suggest correction
comments
print report bad tab
guest
You may want to rate the tab now too:
select rating
Wanna post a correction for this tab? Suggest correction