Oops, an error
Loading. Please wait.

The Judge ukulele

version 3
version 3

Whole song

  • This version shows specifically the strumming patt... Show more

Interactive

919 views 6 this week
no commentswrite comment
1 2 3 4 5
x 6
add to favorites
×
Save as Personal and add changes to this tab that will be seen only by you. Learn more ›
×
You can save this tab as Personal to edit and correct it or add notes. All changes will be seen only by you. Learn more »
launch autoscroll
font size
0
reset
transpose
0
reset
display chords
guitar tuner
edit
Autoscroll
slow
fast
+/-
esc
set tempo
stop
Strumming
There is no strumming pattern for this song yet. and get +5 IQ
The Judge by Twenty One Pilots ukulele tab and chords
I will add more to the tab later

Tab:

A ----0-3-7-5-3-----0-3-7-5-3-----0-3-7-5-3---------
E -0-3-----------0-3-----------0-3------------------
C --------------------------------------------------
A --------------------------------------------------

A -0-0-3-0-3-0------------------0-------------------
E -------------3----0-0-0-0-0-3---------------------
C --------------------------------------------------
A --------------------------------------------------

A -0-3-0-3-0-3-0-3-0---0----------------------------
E -------------------3---0--------------------------
C --------------------------------------------------
A --------------------------------------------------

A -0-3-0-3-0-3-0-----------------0------------------
E ---------------3---0-0-0-0-0-3--------------------
C --------------------------------------------------
A --------------------------------------------------

A -3-0-3-0-3-0---0---2-2-3-2-2-2-2-3-2-2-2-0-2-0----
E -------------3---0-----------------------------3--
C --------------------------------------------------
A --------------------------------------------------

A ---0-8-7-5-3-2---7-5-3-2-0-2-0---0----------------
E -3-------------3---------------3------------------
C --------------------------------------------------
A --------------------------------------------------

[Intro]

Am F C Dm
Am F C

Am           F   C
 Na Na Na Na Oh Oh
             Dm  Am
 Na Na Na Na Oh Oh
             F   C
 Na Na Na Na Oh Oh


[Verse]

Am                               F 
 When the leader of the bad guys sang
C                             Dm
 Something soft and soaked in pain
Am                                F   C   
 I heard the echo from his secret hideaway
Am                              F
 He must've forgot to close his door
C                               Dm
 As he cranked out those dismal chords
Am                           F     C
 And his four walls declared him insane


[Chorus]

   Em
 I found my way
       B
 Right time wrong place
      Dm      G
 As I pled my case

            F         C
 You're the judge, Oh no
        G Am
 Set me free
            F         C
 You're the judge, Oh no
        G Am
 Set me free
   F              G
 I know my soul's freezing
        C            Am
 Hell's hot for good reason
    F            Am
 So please, take me

Am           F  C
 Na Na Na Na Oh Oh
             Dm Am
 Na Na Na Na Oh Oh
             F  C
 Na Na Na Na Oh Oh

 
[Verse]

 Am               
 Three lights are lit
                      F 
 But the fourth one's out
       C
 I can tell cause it's a bit darker
                       Dm
 Than the last night's bout
      Am 
 I forgot about the drought
                        F
 Of light bulbs in this house
           C
 So I head out
                           
 Down a route I think is heading south
             Am
 But I'm not good with directions
                      F
 And I hide behind my mouth
       C
 I'm a pro at imperfections
                              Dm
 And I'm best friends with my doubt
Am
 And now that my mind's out
                             F
 And now I hear it clear and loud
                C
 I'm thinking, "Wow

 I probably should've stayed inside my house."
 

[Chorus]

   Em
 I found my way
       B
 Right time wrong place
      Dm       G
 As I pled my case

            F         C
 You're the judge, Oh no
        G Am
 Set me free
            F         C
 You're the judge, Oh no
        G Am
 Set me free
   F              G
 I know my soul's freezing
        C            Am
 Hell's hot for good reason
    F
 So please,
 

[Bridge]

Am                    F
 I don't know if this song
C                    Dm
 Is a surrender or a revel
Am                    F
 I don't know if this one
C                   Dm
 Is about me or the devil
Am                    F
 I don't know if this song
C                    Dm
 Is a surrender or a revel
Am                    F
 I don't know if this one
C                     Dm
 Is about me or the devil
 

[Instrumental]

Am F C Dm 
Am F C


[Chorus]

            F         C
 You're the judge, Oh no
        G        Am
 Set me free, oh no
            F         C
 You're the judge, Oh no
        G        Am
 Set me free, oh no
   F              G
 I know my soul's freezing
        C            Am
 Hell's hot for good reason
    F
 So please,


[Instrumental]

F C G Am
F C G Am


[Bridge]

F         C
 Na Na Na Na Oh Oh
G         Am
 Na Na Na Na Oh Oh
F         C
 Na Na Na Na Oh Oh
G         Am    
 Na Na Na Na Oh Oh


[Chorus]

            F         C
 You're the judge, Oh no
        G Am
 Set me free
            F         C
 You're the judge, Oh no
        G Am
 Set me free
            F         C
 You're the judge, Oh no
        G Am
 Set me free
            F         C
 You're the judge, Oh no
        G Am     
 Set me free


[Outro]

 F G C Am
 F

            
            
Suggest correction
Creating personal tab
Creating personal tab
You can edit any tab online and save it as your Personal.

You can edit, replace or remove any tab part or add personal notes – all changes will be seen only by you.

Personal tabs can be accessed anytime from any device, even offline.
Learn more »
comments
print report bad tab
guest
You may want to rate the tab now too:
select rating
Wanna post a correction for this tab? Suggest correction