Oops, an error
Loading. Please wait.

The Pantaloon Bass Tab

version 2
version 2

Whole song

  • This is more or less a transcribing of an existing piano arrangement's bassline.
31 views 3 this week
2 commentsread comments
1 2 3 4 5
2 more votes to show rating
add to favorites
launch autoscroll
font size
0
reset
guitar tuner
Autoscroll
slow
fast
+/-
esc
set tempo
stop
Help us to improve Ultimate-Guitar.com Take our survey!
×
Author
Difficulty
About this tab version
This is more or less a transcribing of an existing piano arrangement's bassline. Was this info helpful? Yes No
I've never tabbed for bass before so excuse me if this is awful

[Verse 1] (play 2x)

G|----|---|---|---|---|---|-2-|---|
D|----|---|-0-|-0-|-4-|-4-|---|-2-|
A|--0-|-0-|---|---|---|---|---|---|
E|----|---|---|---|---|---|---|---|

[Verse 2] (play 2x)

G|---|---------|---|---------|---|---------|---|-----|
D|---|---------|-0-|-0-------|---|---------|---|-----|
A|-0-|-0-2-4-0-|---|---4-2-4-|---|-----0-4-|---|---2-|
E|---|---------|---|---------|-2-|-2-4-----|-0-|-0---|

[Verse 1] (play 2x)

G|----|---|---|---|---|---|-2-|---|
D|----|---|-0-|-0-|-4-|-4-|---|-2-|
A|--0-|-0-|---|---|---|---|---|---|
E|----|---|---|---|---|---|---|---|

[Chorus]

G|---------|-------|---------|-----2-|---------|-------|---------|-------|
D|-0-0-0-0-|-2-0---|---------|-2-0---|-4-4-4-4-|-2-0---|-2-2-2-2-|-----4-|
A|---------|-----4-|-0-0-0-0-|-------|---------|-----4-|---------|-4-2---|
E|---------|-------|---------|-------|---------|-------|---------|-------|

G|---------|---------|---------|---------|---------|---------|---------|---|---|---|---|
D|-0-0-0-0-|-0-0-0-0-|---------|---------|-4-4-4-4-|-4-4-4-4-|-2-2-2-2-|---|---|-0-|---|
A|---------|---------|-0-0-0-0-|-0-0-0-0-|---------|---------|---------|-2-|-4-|---|-0-|
E|---------|---------|---------|---------|---------|---------|---------|---|---|---|---|

[Verse 2] (play 2x)

G|---|---|---------|---|---------|---|---------|---|-----|
D|---|---|---------|-0-|-0-------|---|---------|---|-----|
A|-0-|-0-|-0-2-4-0-|---|---4-2-4-|---|-----0-4-|---|---2-|
E|---|---|---------|---|---------|-2-|-2-4-----|-0-|-0---|

[Chorus]

G|---------|-------|---------|-----2-|---------|-------|---------|-------|
D|-0-0-0-0-|-2-0---|---------|-2-0---|-4-4-4-4-|-2-0---|-2-2-2-2-|-----4-|
A|---------|-----4-|-0-0-0-0-|-------|---------|-----4-|---------|-4-2---|
E|---------|-------|---------|-------|---------|-------|---------|-------|

G|---------|---------|---------|---------|---------|---------|---------|---|---|---|---|
D|-0-0-0-0-|-0-0-0-0-|---------|---------|-4-4-4-4-|-4-4-4-4-|-2-2-2-2-|---|---|-0-|---|
A|---------|---------|-0-0-0-0-|-0-0-0-0-|---------|---------|---------|-2-|-4-|---|-0-|
E|---------|---------|---------|---------|---------|---------|---------|---|---|---|---|

[Verse 2] (play 2x)

G|---|---|---------|---|---------|---|---------|---|-----|
D|---|---|---------|-0-|-0-------|---|---------|---|-----|
A|-0-|-0-|-0-2-4-0-|---|---4-2-4-|---|-----0-4-|---|---2-|
E|---|---|---------|---|---------|-2-|-2-4-----|-0-|-0---|

[Chorus] (play 2x)

G|---|---|---|---|---|---|---|---|
D|-0-|-0-|---|---|---|---|---|---|
A|---|---|-0-|-0-|---|---|---|---|
E|---|---|---|---|-2-|-2-|-0-|-0-|

[Chorus] (play 2x)

G|---------|---------|---------|---------|---------|---------|---------|---------|
D|-0-0-0-0-|-0-0-0-0-|---------|---------|-4-4-4-4-|-4-4-4-4-|-2-2-2-2-|-2-2-2-2-|
A|---------|---------|-0-0-0-0-|-0-0-0-0-|---------|---------|---------|---------|
E|---------|---------|---------|---------|---------|---------|---------|---------|

[Outro]

G|---|---|---|
D|---|-0-|---|
A|-4-|---|-0-|
E|---|---|---|
Suggest correction
Give kudos to tab author, rate the tab!
1 2 3 4 5
comments
print report bad tab
2 comments total.
0 reply
Iamaguy 201 Oct 23, 2016 11:17 PM

only verse two sounds right

0 reply
brickmaster.lewis 159 Oct 24, 2016 07:33 AM

That's because that's where the bass line is super clear. Other places, I used the bottom notes of the chords, since it doesn't clearly stand out from the rest of the music.

guest
You may want to rate the tab now too:
select rating
Wanna post a correction for this tab? Suggest correction