Oops, an error
Loading. Please wait.

The Run And Go Bass Tab

version 2
version 2

Whole song

  • Alternatively, you can leave out the octaves and j... Show more

Interactive

34 views 6 this week
no commentswrite comment
1 2 3 4 5
2 more votes to show rating
add to favorites
launch autoscroll
font size
0
reset
guitar tuner
Autoscroll
slow
fast
+/-
esc
set tempo
stop
Help us to improve Ultimate-Guitar.com Take our survey!
×
Author
Difficulty
Tuning
novice
D A D G B E
About this tab version
Alternatively, you can leave out the octaves and just play the bottom two strings for the outro. Remember the switch from quarter notes to eighths in the outro. Was this info helpful? Yes No
Tuning: Drop D

[Intro + Verse 1]

G|--------------------------------|
D|--------------------------------|
A|--------------------------------|
D|-4---4---4---4---4---4---4---4--| x5

G|--------------------------------|
D|--------------------------------|
A|-2---2---2---2------------------|
D|-----------------4---4---4---4--| x2

G|----------------------------------------------------------------|
D|----------------------------------------------------------------|
A|-2---2---2---2---6---6---6---6-----------4---4------------------|
D|---------------------------------4---4-----------4---4---4------|


[Chorus]

G|----------------------------------------------------------------|
D|----------------------------------------------------------------|
A|---------------------------------2---2---2---2------------------|
D|-4---4---4---4---4---4---4---4-------------------4---4---4---4--|

G|----------------------------------------------------------------|
D|----------------------------------------------------------------|
A|---------2---2---------------------------2---2------------------|
D|-1---1-----------4---4---3---3---1---1-----------4---4---4---4--|


[Verse 2]

G|--------------------------------|
D|--------------------------------|
A|--------------------------------|
D|-4---4---4---4---4---4---4---4--| x4

G|--------------------------------|
D|--------------------------------|
A|-2---2---2---2------------------|
D|-----------------4---4---4---4--| x2

G|----------------------------------------------------------------|
D|----------------------------------------------------------------|
A|-2---2---2---2---6---6---6---6-----------4---4------------------|
D|---------------------------------4---4-----------4---4---4------|


[Chorus]

G|----------------------------------------------------------------|
D|----------------------------------------------------------------|
A|---------------------------------2---2---2---2------------------|
D|-4---4---4---4---4---4---4---4-------------------4---4---4---4--|

G|----------------------------------------------------------------|
D|----------------------------------------------------------------|
A|---------2---2---------------------------2---2------------------|
D|-1---1-----------4---4---3---3---1---1-----------4---4---4---4--|

G|--------------------------------|
D|--------------------------------|
A|--------------------------------|
D|-4---4---4---4---1~~~~~~~~------|


[Piano & vocal part / no bass]


[Verse 3] (Bass returns after 8 beats of drums and whistling)

G|--------------------------------|
D|--------------------------------|
A|-3---3---3---3------------------|
D|-----------------5---5---5---5--| x3

G|----------------------------------------------------------------|
D|----------------------------------------------------------------|
A|-3---3---3---3---7---7---7---7-----------5---5------------------|
D|---------------------------------5---5-----------5---5---5---5--|


[Chorus / Outro]

G|-----------5---5----------------|
D|---2---2-----------5---5---4---4|
A|---------3---3------------------|
D|-2---2-----------5---5---4---4--|

G|-----------5---5----------------|
D|---2---2-----------5---5--------|
A|---------3---3------------------|
D|-2---2-----------5---5---5------|
Suggest correction
Give kudos to tab author, rate the tab!
1 2 3 4 5
comments
print report bad tab
guest
You may want to rate the tab now too:
select rating
Wanna post a correction for this tab? Suggest correction