Oops, an error
Loading. Please wait.

Trapdoor bass

4,036 views 81 this week
1 commentread comment
1 2 3 4 5
x 19
add to favorites
×
Save as Personal and add changes to this tab that will be seen only by you. Learn more ›
×
You can save this tab as Personal to edit and correct it or add notes. All changes will be seen only by you. Learn more »
launch autoscroll
font size
0
reset
guitar tuner
edit
Autoscroll
slow
fast
+/-
esc
set tempo
stop
Author
Tabbed by: lexfusion
E-mail: alex.rushe@gmail.com
please let me know if there are any mistakes, thanks!


bass comes in 0:19
end of intro
                                                                  repeat x2
G|-[[-----------------------------------------------------------------]]---|
D|-[[-----------------------------------------------------------------]]---|
A|-[[9-9---9-7-9-9/4-4---4-2-4-4/12-12---7-7-6-7---11-11---9-11-12-11-]]---|
E|-[[-----------------------------------------------------------------]]---|


verse
                                                                  repeat x4
G|-[[-----------------------------------------------------------------]]---|
D|-[[-----------------------------------------------------------------]]---|
A|-[[9-9---9-7-9-9/4-4---4-2-4-4/12-12---7-7-6-7---11-11---9-11-12-11-]]---|
E|-[[-----------------------------------------------------------------]]---|


pre-chorus

G|---------------------------13-11-----------------------------------------|
D|---------------------------------14-14-13-11-----------------------------|
A|---------------------------------------------12~-------------------------|
E|-5-5-5-5-5-5-4-4-4-4-4-4-------------------------------------------------|


rest through the chorus


post chorus

G|---------------------------------------------------------------------------|
D|---------------------------------------------------------------------------|
A|-------------------------9-9-9-9-9-9-4-4-4-4-4-4-12-12-12-7-7-7-11-11-11-9~|
E|-7-7-7-7-7-7-7-7-7-7-7-7---------------------------------------------------|


verse is the same, but the first time through it's this:
G|--------------------------------------------------------------------------|
D|--------------------------------------------------------------------------|
A|-4-4---4-2-4-4/12-12---7-7-6-7---11-11---9-11-12-11-----------------------|
E|--------------------------------------------------------------------------|


pre-chorus again

chorus(rest)


post chorus (a little different)

G|---------------------------------------------------------------------------|
D|---------------------------------------------------------------------------|
A|-------------------------9-9-9-9-9-9-4-4-4-4-4-4-12-12-12-7-7-7-11-11-11---|
E|-7-7-7-7-7-7-7-7-7-7-7-7---------------------------------------------------|

G|---------------------------------------------------------------------------|
D|---------------------------------------------------------------------------|
A|-9-7-6-4-4-4-4-4-4-4-4-4-----4-4-4-4-4-4-4-4-4-4---------------------------|
E|-------------------------5-4---------------------5-4-----------------------|


bridge
                                                  repeat x4
G|-[[-------------------------------------------------]]---------------------|
D|-[[-------------------------------------6-6-6-------]]---------------------|
A|-[[-4-4-4-4-4-2-0-0-0-0-2-4-7-7-7-7-6-7-------------]]---------------------|
E|-[[------------------------------------------4-4-4--]]---------------------|


pre-chorus

final chorus(rest)

************************************
| [[ ]] repeat
| \     Slide
| ~     let ring

************************************

            
            
Suggest correction
Creating personal tab
Creating personal tab
You can edit any tab online and save it as your Personal.

You can edit, replace or remove any tab part or add personal notes – all changes will be seen only by you.

Personal tabs can be accessed anytime from any device, even offline.
Learn more »
comments
print report bad tab
1 comment total.
+2 reply
cindelguerrero 2,400 Jun 06, 2016 02:55 PM

Woah, someone finally tabbed it. Good job, this tab's rad.

guest
You may want to rate the tab now too:
select rating
Wanna post a correction for this tab? Suggest correction