Oops, an error
Loading. Please wait.

Trapdoor Tab

964 views 33 this week
2 commentsread comments
1 2 3 4 5
x 6
add to favorites
launch autoscroll
font size
0
reset
how to read this tab
guitar tuner
×
Best way to learn
"Trapdoor"
Autoscroll
slow
fast
+/-
esc
set tempo
stop
Author
Difficulty
Capo
  follow
novice
4th fret
About this tab version
This is almost entirely transposed from the piano sheet music (as there is no guitar part in the song). The only other version is chords with no capo. This utilizes the capo to make the transposition much easier to play. Was this info helpful? Yes No
[Intro]

e|--------------|-------------|-------------|-------------|
B|--3-3-3-0-0-0-|-0-0-0-1-1-1-|-1-1-1-0-0-0-|-0-0-0-0-0-0-|
G|--2-2-2-2-2-2-|-2-2-2-2-2-2-|-2-2-2-0-0-0-|-1-1-1-1-1-1-|
D|--3-3-3-3-3-3-|-2-2-2-2-2-2-|-3-3-3-2-2-2-|-2-2-2-2-2-2-|
A|--------------|-------------|-------------|-------------|
E|--------------|-------------|-------------|-------------|

e|--------------|-------------|-------------|-------------|
B|--3-3-3-0-0-0-|-0-0-0-1-1-1-|-1-1-1-0-0-0-|-0-0-0-0-----|
G|--2-2-2-2-2-2-|-2-2-2-2-2-2-|-2-2-2-0-0-0-|-1-1-1-1-----|
D|--3-3-3-3-3-3-|-2-2-2-2-2-2-|-3-3-3-2-2-2-|-2-2-2-2-----|
A|--------------|-------------|-------------|-------------|
E|--------------|-------------|-------------|-------------|


[Verse 1]

e|--------------|-------------|-------------|-------------|
B|--3-3-3-0-0-0-|-0-0-0-1-1-1-|-1-1-1-0-0-0-|-0-0-0-0-0-0-|
G|--2-2-2-2-2-2-|-2-2-2-2-2-2-|-2-2-2-0-0-0-|-1-1-1-1-1-1-|
D|--3-3-3-3-3-3-|-2-2-2-2-2-2-|-3-3-3-2-2-2-|-2-2-2-2-2-2-| 
A|--------------|-------------|-------------|-------------|
E|--------------|-------------|-------------|-------------|(x6)

e|--------------|-------------|-------------|
B|--1-1-1-1-1-1-|-0-0-0-0-0-0-|-5-3-1-1-0---|
G|--2-2-2-2-2-2-|-1-1-1-1-1-1-|-----------2-|
D|--3-3-3-3-3-3-|-2-2-2-2-2-2-|-------------|
A|--------------|-------------|-------------|
E|--------------|-------------|-------------|


[Chorus]

e|--------------|-------------|-------------|-------------|
B|--------------|-------------|-0-----------|-------------|
G|--2-----------|-0-----------|-0-----------|-2-----------|
D|--3-----------|-2-----------|-0-----------|-2-----------|
A|--3-----------|-3-----------|-------------|-3-----------|
E|--------------|-------------|-------------|-------------|

e|--------------|-------------|-------------|-------------|
B|--------------|-------------|-0-----------|-------------|
G|--2-----------|-0-----------|-0-----------|-0-0-0-0-0-0-|
D|--3-----------|-2-----------|-0-----------|-0-0-0-0-0-0-|
A|--3-----------|-3-----------|-------------|-------------|
E|--------------|-------------|-------------|-3-3-3-3-3-3-|


[Verse 2]

e|--------------|-------------|-------------|-------------|
B|--3-3-3-0-0-0-|-0-0-0-1-1-1-|-1-1-1-0-0-0-|-0-0-0-0-0-0-|
G|--2-2-2-2-2-2-|-2-2-2-2-2-2-|-2-2-2-0-0-0-|-1-1-1-1-1-1-|
D|--3-3-3-3-3-3-|-2-2-2-2-2-2-|-3-3-3-2-2-2-|-2-2-2-2-2-2-| 
A|--------------|-------------|-------------|-------------|
E|--------------|-------------|-------------|-------------|

e|--------------|-------------|-------------|-------------|
B|--3-----------|-0-0-0-1-1-1-|-1-1-1-0-0-0-|-0-0-0-0-0-0-|
G|--2-----------|-2-2-2-2-2-2-|-2-2-2-0-0-0-|-1-1-1-1-1-1-|
D|--3-----------|-2-2-2-2-2-2-|-3-3-3-2-2-2-|-2-2-2-2-2-2-|
A|--------------|-------------|-------------|-------------|
E|--------------|-------------|-------------|-------------|

e|--------------|-------------|-------------|-------------|
B|--3-3-3-0-0-0-|-0-0-0-1-1-1-|-1-1-1-0-0-0-|-0-0-0-0-0-0-|
G|--2-2-2-2-2-2-|-2-2-2-2-2-2-|-2-2-2-0-0-0-|-1-1-1-1-1-1-|
D|--3-3-3-3-3-3-|-2-2-2-2-2-2-|-3-3-3-2-2-2-|-2-2-2-2-2-2-| 
A|--------------|-------------|-------------|-------------|
E|--------------|-------------|-------------|-------------|(x3)

e|--------------|-------------|-------------|
B|--1-1-1-1-1-1-|-0-0-0-0-0-0-|-5-3-1-1-0---|
G|--2-2-2-2-2-2-|-1-1-1-1-1-1-|-----------2-|
D|--3-3-3-3-3-3-|-2-2-2-2-2-2-|-------------|
A|--------------|-------------|-------------|
E|--------------|-------------|-------------|


[Chorus]

e|--------------|-------------|-------------|-------------|
B|--------------|-------------|-0-----------|-------------|
G|--2-----------|-0-----------|-0-----------|-2-----------|
D|--3-----------|-2-----------|-0-----------|-2-----------|
A|--3-----------|-3-----------|-------------|-3-----------|
E|--------------|-------------|-------------|-------------|

e|--------------|-------------|-------------|-------------|
B|--------------|-------------|-0-----------|-------------|
G|--2-----------|-0-----------|-0-----------|-0-0-0-0-0-0-|
D|--3-----------|-2-----------|-0-----------|-0-0-0-0-0-0-|
A|--3-----------|-3-----------|-------------|-------------|
E|--------------|-------------|-------------|-3-3-3-3-3-3-|


[Bridge]

e|--------------|-------------|-------------|-------------|
B|--3-3-3-0-0-0-|-0-0-0-1-1-1-|-1-1-1-0-0-0-|-0-0-0-------|
G|--2-2-2-2-2-2-|-2-2-2-2-2-2-|-2-2-2-0-0-0-|-1-1-1-------|
D|--3-3-3-3-3-3-|-2-2-2-2-2-2-|-3-3-3-2-2-2-|-2-2-2-0-----|
A|--------------|-------------|-------------|---------3-2-|
E|--------------|-------------|-------------|-------------|

e|--------------|-------------|
B|--------------|-------------|
G|--2-2-2-2-2-2-|-2-2-2-2-----|
D|--------------|---------3-2-| 
A|--0-0-0-0-0-0-|-0-0-0-0-----|
E|--------------|---------1-0-|(x2)

e|--------------|-------------|-------------|-------------|
B|--------------|-------------|-------------|-------------|
G|--------------|-------------|-------------|-------------|
D|--------------|-------------|-------------|-2-2-2-------| 
A|--0-0-0-0-0---|---------0-2-|-3-3-3-3-2-3-|-------------|
E|------------3-|-1-1-1-1-----|-------------|-------0-0-0-|(x2)

e|--------------|-------------|-------------|-0-0-0-------|
B|--------------|-------------|-------------|-------------|    (this is the same as
G|--2-2-2-2-2-0-|---------2-4-|-5-5-5-5-4-5-|-------------|     the last section w/
D|--------------|-3-3-3-3-----|-------------|-2-2-2-2-2-2-|     octaves. You can leave
A|--0-0-0-0-0---|---------0-2-|-3-3-3-3-2-3-|-------------|     them out and still
E|------------3-|-1-1-1-1-----|-------------|-------0-0-0-|(x2) get the same effect.)

e|--------------|-0-0-0-------|-------------|
B|--1-1-1-1-1-3-|-------0-0-0-|-5-3-1-1-0---|
G|--2-2-2-2-2-2-|-1-1-1-1-1-1-|-----------2-|
D|--3-3-3-3-3-3-|-2-2-2-2-2-2-|-------------|
A|--------------|-------------|-------------|
E|--------------|-------------|-------------|


[Chorus]

e|--------------|-------------|-------------|-------------|
B|--------------|-------------|-0-----------|-------------|
G|--2-----------|-0-----------|-0-----------|-2-----------|
D|--3-----------|-2-----------|-0-----------|-2-----------| 
A|--3-----------|-3-----------|-------------|-3-----------|
E|--------------|-------------|-------------|-------------|(x2)


[Outro]

e|--------------|-------------|-------------|
B|--------------|-------------|-------------|
G|--2-----------|-1-----------|-0-----------|
D|--3-----------|-3-----------|-2-----------|
A|--3-----------|-3-----------|-3-----------|
E|--------------|-------------|-------------|
Suggest correction
comments
print report bad tab
2 comments total.
+2 reply
readytotest 20 Feb 19, 2017 04:24 AM

Best tab EVER

guest
You may want to rate the tab now too:
select rating
Wanna post a correction for this tab? Suggest correction