Oops, an error
Loading. Please wait.
We have an official Truce tab made by UG professional guitarists. Check out the tab »
×
2,083 views 9 this week
1 commentread comment
1 2 3 4 5
x 14
add to favorites
×
Save as Personal and add changes to this tab that will be seen only by you. Learn more ›
×
You can save this tab as Personal to edit and correct it or add notes. All changes will be seen only by you. Learn more »
launch autoscroll
font size
0
reset
guitar tuner
edit
Autoscroll
slow
fast
+/-
esc
set tempo
stop
-------------------------------------------------------------------------------
                             Truce (BASS)- twenty one pilots
-------------------------------------------------------------------------------
Tabbed by: Guitar Player21
 
Tuning: Standard
Hey y'all. Upon request, I added twenty one pilot's Truce bass.
I have included the lyrics if you want them.
Enjøy!


VERSE 1: (Intro played by piano)
G|---------------------------------------------------------------------------|
D|---------------------------------------------------------------------------|
A|-----------2-2-2-2--3-3-3-3-------------------3-3-3-3----------------------|
E|--3-3-3-3--------------------3-3-3-3--0-0-0-0----------3-3-3-3-3-3-3-3-----|

G|---------------------------------------------------------------------------|
D|---------------------------------------------------------------------------|
A|-----------2-2-2-2--3-3-3-3--------------------3-3-3-3---------------------|
E|--3-3-3-3--------------------3-3-3-3--0-0-0-0-----------3-3-3-3-3-3-3-3----|

CHORUS:
G|---------------------------------------------------------------------------|
D|---------------------------------------------------------------------------|
A|--5-------3---------------5-------3------------------5--3---3--------------|
E|------------------3------------------------3---2--0-------------3----------|

VERSE 2:
G|---------------------------------------------------------------------------|
D|---------------------------------------------------------------------------|
A|-----------2-2-2-2--3-3-3-3-----------------3-3-3-3------------------------|
E|--3-3-3-3--------------------3-3-3-3--0-0-0-0---------3-3-3-3-3-3-3-3------|

G|---------------------------------------------------------------------------|
D|---------------------------------------------------------------------------|
A|-----------2-2-2-2--3-3-3-3--------------------3-3-3-3---------------------|
E|--3-3-3-3--------------------3-3-3-3--0-0-0-0-----------3-3-3-3-3-3-3-3----|

CHORUS:
G|---------------------------------------------------------------------------|
D|---------------------------------------------------------------------------|
A|--5-------3---------------5-------3------------------5--3---3--------------|
E|------------------3------------------------3---2--0-------------3----------|

OUTRO:
G|---------------------------------------------------------------------------|
D|---------------------------------------------------------------------------|
A|-----------3-3-3-3---------------------------------------------------------|
E|--0-0-0-0-------------3----------------------------------------------------|

===============================================================================

LYRICS:

Now the night is coming to an end
The sun will rise and we will try again
Stay alive, stay alive for me
You will die, but now your life is free
Take pride in what is sure to die
I will fear the night again
I hope I'm not my only friend
Stay alive, stay alive for me
You will die, but now your life is free
Take pride in what is sure to die


štåÿ ålîvê |-/
===============================================================================
Suggest correction
Creating personal tab
Creating personal tab
You can edit any tab online and save it as your Personal.

You can edit, replace or remove any tab part or add personal notes – all changes will be seen only by you.

Personal tabs can be accessed anytime from any device, even offline.
Learn more »
comments
print report bad tab
1 comment total.
0 reply
Guitar Player21 219 Jun 18, 2016 02:55 PM

Please check out my newest tab for twenty one pilots' "heathens" and rate it with 5 stars!

https://tabs.ultimate-guitar.com/t/twenty_one_pilots/heathens_ver2_btab.htm

guest
You may want to rate the tab now too:
select rating
Wanna post a correction for this tab? Suggest correction