Oops, an error
Loading. Please wait.

Truce Tab

version 2
version 2

Whole song

  • There is nothing different from my tab to the original song.

Interactive

292 views 33 this week
3 commentsread comments
1 2 3 4 5
1 last vote to show rating
add to favorites
launch autoscroll
font size
0
reset
how to read this tab
guitar tuner
Autoscroll
slow
fast
+/-
esc
set tempo
stop
Help us to improve Ultimate-Guitar.com Take our survey!
×
Author
About this tab version
There is nothing different from my tab to the original song. Was this info helpful? Yes No
Truce-Twenty Pilots (Ukulele Tab)
by Kent Rovin Rosales

VERSE 1
   
    G      B         C          G         Em     C   G 
A|--2----3----0------10-9-7-5\2-2---2-----2-5--------2-|
E|--3---3--2--2------8----------3---3-3/5-3--5\3-----3-|
C|--2--2---3-3---2/7-7----------2--2------4------3-2---|
G|---------4-------------------------------------------|


    G      B         C          G         Em     C   G 
A|--2----3----0------10-9-7-5\2-2---2-----2-5--------2-|
E|--3---3--2--2------8----------3---3-3/5-3--5\3-----3-|
C|--2--2---3-3---2/7-7----------2--2------4------3-2---|
G|---------4-------------------------------------------|
     
HOOK 
    D       C        G D       C             G D Em D C     Cm G
A|--------5------3---2-------5---------3-----2---2----3---3-3--2-|
E|------5-5----3-3---3-----5-5-------3-3-----3-2-3--2-0--0--3--3-|
C|--6h7---7-4h5--4-2-2-6h7---7-4-4-5---4-4\2-2-2-4--2-0-0---3--2-|
G|---------------------------------------------2----2------------|

VERSE 2

    G      B         C          G         Em     C   G 
A|--2----3----0------10-9-7-5\2-2---2-----2-5--------2-|
E|--3---3--2--2------8----------3---3-3/5-3--5\3-----3-|
C|--2--2---3-3---2/7-7----------2--2------4------3-2---|
G|---------4-------------------------------------------|


    G      B         C          G         Em     C   G 
A|--2----3----0------10-9-7-5\2-2---2-----2-5--------2-|
E|--3---3--2--2------8----------3---3-3/5-3--5\3-----3-|
C|--2--2---3-3---2/7-7----------2--2------4------3-2---|
G|---------4-------------------------------------------|

HOOK
 
    D     C          G D     C               G D Em D C     Cm G
A|--------5------3---2-------5---------3-----2---2----3---3-3--2-|
E|------5-5----3-3---3-----5-5-------3-3-----3-2-3--2-0--0--3--3-|
C|--6h7---7-4h5--4-2-2-6h7---7-4-4-5---4-4\2-2-2-4--2-0-0---3--2-|
G|---------------------------------------------2----2------------|

END

       Em     C   G     Em     C   G 
A|-----2-5--------2-----2-5----------|
E|-3/5-3--5\3-----3-3/5-3--5\3-----3-|
C|-----4------3-2-------4------3-2---|
G|-----------------------------------|
Suggest correction
Give kudos to tab author, rate the tab!
1 2 3 4 5
comments
print report bad tab
3 comments total.
0 reply
kentlord05 45 Sep 12, 2016 03:22 AM

D C G D C G D Em D C Cm G
A|--------5------3---2-------5---------3-----2---2----3---3-3--2-|
E|------5-5----3-3---3-----5-5-------3-3-----3-2-3--2-0--0--3--3-|
C|--6h7---7-4h5--4-2-2-6h7---7-4-4-5---4-4\2-2-2-4--2-0-0---3--2-|
G|---------------------------------------------2----2------------|

This is the correct arrangement. Sorry. :)

0 reply
acidickitten 10 Sep 12, 2016 05:51 AM

for the chorus/hook?

0 reply
kentlord05 45 Sep 13, 2016 12:31 PM

it's for the hook.

guest
You may want to rate the tab now too:
select rating
Wanna post a correction for this tab? Suggest correction