Oops, an error
Loading. Please wait.
We have an official Truce tab made by UG professional guitarists. Check out the tab »
×

Truce tab

version 3
version 3

Whole song

  • There is nothing different from my tab to the original song.
  • My tab includes the melody you play while singing.
  • New way to play the song very close to how it is p... Show more
  • This is a fingerstyle version of the song Truce.

Interactive

1,000 views 27 this week
1 commentread comment
1 2 3 4 5
x 5
add to favorites
×
Save as Personal and add changes to this tab that will be seen only by you. Learn more ›
×
You can save this tab as Personal to edit and correct it or add notes. All changes will be seen only by you. Learn more »
launch autoscroll
font size
0
reset
how to read this tab
guitar tuner
edit
Autoscroll
slow
fast
+/-
esc
set tempo
stop
About this tab version
My tab includes the melody you play while singing. Was this info helpful? Yes No
Truce by twenty one pilots    tab by sam stew
--------------------------------------------------------------------------
this tab is is for playing and singing along to, that's why I added the 
lyrics. play it similar as to you would as you sing along while playing
the piano.

the chord shapes are:
Verses- G Bm7 C G,  Em C G

Chorus- D C G,      D/F#  Em D C Cm G

no capo

enjoy



[Intro]

e|----------------------|
B|----------------------|
G|------------0---------|
D|---------0-----0------|x4
A|----------------------|
E|------3---------------|


[Verse 1] 
 
     now       the    night        is    com-ing   to   an       end
e|-------------------------------------------------------------------------------------|
B|-------------------------------------------------------------------------------------|
G|-----------0-----------------2--------------------0-------------0--------0-----------|
D|--------0-----0----------0-------0-----------2---------2-------------0------0--------|
A|--------------------2-------------------3--------------------------------------------|
E|----3-----------------------------------------------------------3--------------------|


      oooooooooo  oo       oooo   oooo   OOOO         oooo
e|-------------------------------------------------------------------------------------|
B|-------------------------------------------------------------------------------------|
G|-------------0----------------------------------------0------------------------------|
D|--------2-------2---------------2-----2p0-------------0------------------------------|
A|----2---------------------3----------------------------------------------------------|
E|------------------------------------------------------3------------------------------|


the  sun       will  rise        and     we  will  try   a-     -gain
e|-------------------------------------------------------------------------------------|
B|-------------------------------------------------------------------------------------|
G|-----------0-----------------2--------------------0-------------0--------0-----------|
D|--------0-----0----------0-------0-----------2---------2-------------0------0--------|
A|--------------------2-------------------3--------------------------------------------|
E|----3-----------------------------------------------------------3--------------------|


      oooooooooo  oo       oooo   oooo   OOOO         oooo
e|-------------------------------------------------------------------------------------|
B|-------------------------------------------------------------------------------------|
G|-------------0----------------------------------------0------------------------------|
D|--------2-------2---------------2-----2p0-------------0------------------------------|
A|----2---------------------3----------------------------------------------------------|
E|------------------------------------------------------3------------------------------|


[Chorus]



      stay  a  live        stay a  live    for       me
e|-------------------------------------------------------------------------------------|
B|-------------------------------------------------------------------------------------|
G|---------------2------------------0-----------------0------------2p0-----------------|
D|----------0---------0---------2----------2p0--------0-------------------2p0----------|
A|------0-------------------3----------------------------------------------------------|
E|----------------------------------------------------3--------------------------------|

   
       you will  die       now yur life    is        free 
e|-------------------------------------------------------------------------------------|
B|-------------------------------------------------------------------------------------|
G|---------------2-------------------0-----------------0-------------------------------|
D|----------0---------0----------2----------2p0--------0-------------------------------|
A|------0--------------------3---------------------------------------------------------|
E|-----------------------------------------------------3-------------------------------|

                                                                (strum)
      take      pride   in   what      is   sure       to         die
e|-----------------------------------------------------------------x-------------------|
B|-----------------------------------------------------------------x-------------------|
G|-----2----------0-------------2---------------0------------------0---------0---------|
D|-----4----------2-------------0-------------2----------5---------0------0-----0------|
A|-----5----------2-------------0----------3----------3------------2-------------------|
E|-----------------------------------------------------------------3-------------------|

[Chorus Outro]

e|----------------------|
B|----------------------|
G|------------0---------|
D|---------0-----0------|x2
A|----------------------|
E|------3---------------|



[Verse 2]

      I        will  fear         the     ni------ght    a-     -gain
e|-------------------------------------------------------------------------------------|
B|-------------------------------------------------------------------------------------|
G|-----------0-----------------2--------------------0-------------0--------0-----------|
D|--------0-----0----------0-------0-----------2---------2-------------0------0--------|
A|--------------------2-------------------3--------------------------------------------|
E|----3-----------------------------------------------------------3--------------------|
 

      oooooooooo  oo       oooo   oooo   OOOO         oooo
e|-------------------------------------------------------------------------------------|
B|-------------------------------------------------------------------------------------|
G|-------------0----------------------------------------0------------------------------|
D|--------2-------2---------------2-----2p0-------------0------------------------------|
A|----2---------------------3----------------------------------------------------------|
E|------------------------------------------------------3------------------------------|


  I  hope      im    not          my      ooo----------nly      friend
e|-------------------------------------------------------------------------------------|
B|-------------------------------------------------------------------------------------|
G|-----------0-----------------2--------------------0-------------0--------0-----------|
D|--------0-----0----------0-------0-----------2---------2-------------0------0--------|
A|--------------------2-------------------3--------------------------------------------|
E|----3-----------------------------------------------------------3--------------------|


      oooooooooo  oo       oooo   oooo   OOOO         oooo
e|-------------------------------------------------------------------------------------|
B|-------------------------------------------------------------------------------------|
G|-------------0----------------------------------------0------------------------------|
D|--------2-------2---------------2-----2p0-------------0------------------------------|
A|----2---------------------3----------------------------------------------------------|
E|------------------------------------------------------3------------------------------|


[Chorus]

      stay  a  live        stay a  live    for       me
e|-------------------------------------------------------------------------------------|
B|-------------------------------------------------------------------------------------|
G|---------------2------------------0-----------------0------------2p0-----------------|
D|----------0---------0---------2----------2p0--------0-------------------2p0----------|
A|------0-------------------3----------------------------------------------------------|
E|----------------------------------------------------3--------------------------------|


       you will  die       now yur life    is        free 
e|-------------------------------------------------------------------------------------|
B|-------------------------------------------------------------------------------------|
G|---------------2-------------------0-----------------0-------------------------------|
D|----------0---------0----------2----------2p0--------0-------------------------------|
A|------0--------------------3---------------------------------------------------------|
E|-----------------------------------------------------3-------------------------------|


                                                                (strum)
      take      pride   in   what      is   sure       to         die
e|-----------------------------------------------------------------x-------------------|
B|-----------------------------------------------------------------x-------------------|
G|-----2----------0-------------2---------------0------------------0-------------------|
D|-----4----------2-------------0-------------2----------5---------0-------------------|
A|-----5----------2-------------0----------3----------3------------2-------------------|
E|-----------------------------------------------------------------3-------------------|

   begin this outro immediately after the last strum of the chorus

[outro]

e|------------------------------------------------------------x------------------------|
B|--------0--------3-------0----------------------------------x------------------------|
G|---2------------------------------2----0--------------------0------------------------|
D|----------------------------------------------2-------------0------------------------|
A|------------------------------------------------------------2------------------------|
E|------------------------------------------------------------3------------------------|


pretty song

************************************

| x   Dead note
| p   Pull-off


************************************
Suggest correction
Creating personal tab
Creating personal tab
You can edit any tab online and save it as your Personal.

You can edit, replace or remove any tab part or add personal notes – all changes will be seen only by you.

Personal tabs can be accessed anytime from any device, even offline.
Learn more »
comments
print report bad tab
1 comment total.
0 reply
UkuleleLover12 10 Jun 30, 2017 07:51 PM

thanks fren!

guest
You may want to rate the tab now too:
select rating
Wanna post a correction for this tab? Suggest correction