Oops, an error
Loading. Please wait.
We have an official Truce tab made by UG professional guitarists. Check out the tab »
×

Truce tab

version 4
version 4

Whole song

  • There is nothing different from my tab to the original song.
  • My tab includes the melody you play while singing.
  • New way to play the song very close to how it is p... Show more
  • This is a fingerstyle version of the song Truce.

Interactive

262 views 6 this week
no commentswrite comment
1 2 3 4 5
x 3
add to favorites
×
Save as Personal and add changes to this tab that will be seen only by you. Learn more ›
×
You can save this tab as Personal to edit and correct it or add notes. All changes will be seen only by you. Learn more »
launch autoscroll
font size
0
reset
how to read this tab
guitar tuner
edit
Autoscroll
slow
fast
+/-
esc
set tempo
stop
Author
Difficulty
About this tab version
New way to play the song very close to how it is played on the Piano in the studio version, for two guitars. Was this info helpful? Yes No
Guitar 1
  G
e|----------------|----------------|----------------|----------------|
B|----------------|----------------|----------------|----------------|
G|----------------|----------------|----------------|----------------|
D|----------------|----------------|----------------|----------------|
A|----------------|----------------|----------------|----------------|
E|----------------|----------------|----------------|----------------|

Guitar 2
e|--------3-------|--------3-------|--------3-------|--------3-------|
B|----3-------3---|----3-------3---|----3-------3---|----3-------3---|
G|0---------------|0---------------|0---------------|0---------------|
D|----------------|----------------|----------------|----------------|
A|----------------|----------------|----------------|----------------|
E|----------------|----------------|----------------|----------------|



Guitar 1
  G                B7               C                Gmaj7
e|----------------|----------------|3---2-0---------|----------------|
B|0-----------1---|----------------|----------3-----|0---------------|
G|0---------------|2-----------4---|0---------------|----------------|
D|0---------------|4---------------|----4-2---0-----|----------------|
A|----------------|6---------------|----------------|2---------------|
E|----------------|----------------|----------------|----------------|

Guitar 2
e|--------3-------|--------7-------|--------8-------|--------3---2---|
B|----3-------3---|----7-------7---|----8-------8---|----3-----------|
G|0---------------|4---------------|5---------------|0---------------|
D|----------------|----------------|----------------|----------------|
A|----------------|----------------|----------------|----------------|
E|----------------|----------------|----------------|----------------|

Now the night is coming to an end



Guitar 1
  Em               C                G
e|----------------|----------------|----------------|----------------|
B|----0-------3---|--------------0-|----------------|----------------|
G|0-2-------------|2-0-------------|----------------|----------------|
D|----------------|--------2---0---|----------------|----------------|
A|----------------|----------------|----------------|----------------|
E|----------------|----------------|----------------|----------------|

Guitar 2
e|--------0-------|----------------|--------3-------|--------3-------|
B|----0-------0---|--------1-------|----3-------3---|----3-------3---|
G|----------------|----0-------0---|0---------------|0---------------|
D|2---------------|----------------|----------------|----------------|
A|----------------|3---------------|----------------|----------------|
E|----------------|----------------|----------------|----------------|



Guitar 1
  G                B7               C                Gmaj7
e|----------------|----------------|3---2-0---------|----------------|
B|0-----------1---|----------------|----------3-----|0---------------|
G|0---------------|2-----------4---|0---------------|----------------|
D|0---------------|4---------------|----4-2---0-----|----------------|
A|----------------|6---------------|----------------|2---------------|
E|----------------|----------------|----------------|----------------|

Guitar 2
e|--------3-------|--------7-------|--------8-------|--------3---2---|
B|----3-------3---|----7-------7---|----8-------8---|----3-----------|
G|0---------------|4---------------|5---------------|0---------------|
D|----------------|----------------|----------------|----------------|
A|----------------|----------------|----------------|----------------|
E|----------------|----------------|----------------|----------------|

The sun will rise and we will try again.



Guitar 1
  Em               C                G
e|----------------|----------------|----------------|----------------|
B|----0-------3---|--------------0-|----------------|----------------|
G|0-2-------------|2-0-------------|----------------|----------------|
D|----------------|--------2---0---|----------------|----------------|
A|----------------|----------------|----------------|----------------|
E|----------------|----------------|----------------|----------------|

Guitar 2
e|--------0-------|----------------|--------3-------|--------3-------|
B|----0-------0---|--------1-------|----3-------3---|----3-------3---|
G|----------------|----0-------0---|0---------------|0---------------|
D|2---------------|----------------|----------------|----------------|
A|----------------|3---------------|----------------|----------------|
E|----------------|----------------|----------------|----------------|



Guitar 1
  D                C                G
e|----------------|----------------|----------------|0---------------|
B|----------------|----------------|0---------------|--3-----0-1-----|
G|--2-2-----------|--0-0-----------|0---------------|5-4-----0-2-----|
D|4---------------|2-----------2---|----------------|----------------|
A|5---------------|3---------------|----------------|----------------|
E|----------------|----------------|----------------|----------------|

Guitar 2
e|----------------|----------------|--------3-------|--------3-------|
B|--------3-------|--------1-------|----3-------3---|----3-------3---|
G|----2-------2---|----0-------0---|0---------------|0---------------|
D|0---------------|----------------|----------------|----------------|
A|----------------|3---------------|----------------|----------------|
E|----------------|----------------|----------------|----------------|

Stay alive, stay alive for me.



Guitar 1
  D                C                G       D        Em      D
e|----------------|----------------|----------------|----------------|
B|----------------|----------------|----------------|----------------|
G|--2-2-----------|--0-0-----------|----------------|----------------|
D|4---------------|2-----------2---|9-------7-------|5-----5-4---4---|
A|5---------------|3---------------|10------9-------|7-----7-5---5---|
E|----------------|----------------|10------10------|7-----7-5---5---|

Guitar 2
e|----------------|----------------|3-------2-------|0---------------|
B|--------3-------|--------1-------|----------------|--------3---3---|
G|----2-------2---|----0-------0---|0---------------|----------------|
D|0---------------|----------------|--------4-------|2-------0---0---|
A|----------------|3---------------|----------------|----------------|
E|----------------|----------------|----------------|----------------|

You will die, but now your life is free, take pride in what is



Guitar 1
  C                Cm               G
e|----------------|----------------|----------------|----------------|
B|----------------|----------------|----------------|----------------|
G|----------------|----------------|0---------------|----------------|
D|2-------2-------|1-------1-------|0---------------|----------------|
A|3-------3-------|3-------3-------|----------------|----------------|
E|------------3---|------------3---|----------------|----------------|

Guitar 2
e|----------------|----------------|--------3-------|--------3-------|
B|1---------------|----------------|----3-------3---|----3-------3---|
G|----------------|----------------|0---------------|0---------------|
D|----------------|----------------|----------------|----------------|
A|3---------------|----------------|----------------|----------------|
E|----------------|----------------|----------------|----------------|

sure to die.



Guitar 1
  G                B7               C                Gmaj7
e|----------------|----------------|3---2-0---------|----------------|
B|0-----------1---|----------------|----------3-----|0---------------|
G|0---------------|2-----------4---|0---------------|----------------|
D|0---------------|4---------------|----4-2---0-----|----------------|
A|----------------|6---------------|----------------|2---------------|
E|----------------|----------------|----------------|----------------|

Guitar 2
e|--------3-------|--------7-------|--------8-------|--------3---2---|
B|----3-------3---|----7-------7---|----8-------8---|----3-----------|
G|0---------------|4---------------|5---------------|0---------------|
D|----------------|----------------|----------------|----------------|
A|----------------|----------------|----------------|----------------|
E|----------------|----------------|----------------|----------------|

I will fear the night again



Guitar 1
  Em               C                G
e|----------------|----------------|----------------|----------------|
B|----0-------3---|--------------0-|----------------|----------------|
G|0-2-------------|2-0-------------|----------------|----------------|
D|----------------|--------2---0---|----------------|----------------|
A|----------------|----------------|----------------|----------------|
E|----------------|----------------|----------------|----------------|

Guitar 2
e|--------0-------|----------------|--------3-------|--------3-------|
B|----0-------0---|--------1-------|----3-------3---|----3-------3---|
G|----------------|----0-------0---|0---------------|0---------------|
D|2---------------|----------------|----------------|----------------|
A|----------------|3---------------|----------------|----------------|
E|----------------|----------------|----------------|----------------|



Guitar 1
  G                B7               C                Gmaj7
e|----------------|----------------|3---2-0---------|----------------|
B|0-----------1---|----------------|----------3-----|0---------------|
G|0---------------|2-----------4---|0---------------|----------------|
D|0---------------|4---------------|----4-2---0-----|----------------|
A|----------------|6---------------|----------------|2---------------|
E|----------------|----------------|----------------|----------------|

Guitar 2
e|--------3-------|--------7-------|--------8-------|--------3---2---|
B|----3-------3---|----7-------7---|----8-------8---|----3-----------|
G|0---------------|4---------------|5---------------|0---------------|
D|----------------|----------------|----------------|----------------|
A|----------------|----------------|----------------|----------------|
E|----------------|----------------|----------------|----------------|

I hope I'm not my only friend.



Guitar 1
  Em               C                G
e|----------------|----------------|----------------|----------------|
B|----0-------3---|--------------0-|----------------|----------------|
G|0-2-------------|2-0-------------|----------------|----------------|
D|----------------|--------2---0---|----------------|----------------|
A|----------------|----------------|----------------|----------------|
E|----------------|----------------|----------------|----------------|

Guitar 2
e|--------0-------|----------------|--------3-------|--------3-------|
B|----0-------0---|--------1-------|----3-------3---|----3-------3---|
G|----------------|----0-------0---|0---------------|0---------------|
D|2---------------|----------------|----------------|----------------|
A|----------------|3---------------|----------------|----------------|
E|----------------|----------------|----------------|----------------|


Guitar 1
  D                C                G
e|----------------|----------------|----------------|0---------------|
B|----------------|----------------|0---------------|--3-----0-1-----|
G|2---------------|0---------------|0---------------|5-4-----0-2-----|
D|4---------------|2---------------|----------------|----------------|
A|5---------------|3---------------|----------------|----------------|
E|----------------|----------------|----------------|----------------|

Guitar 2
e|----------------|----------------|3---------------|----------------|
B|3---------------|1---------------|----------------|----------------|
G|----------------|----------------|----------------|----------------|
D|----------------|----------------|----------------|----------------|
A|----------------|----------------|----------------|----------------|
E|----------------|----------------|----------------|----------------|

Stay alive, stay alive for me.



Guitar 1
  D                C                G       D        Em      D
e|----------------|----------------|----------------|----------------|
B|----------------|----------------|----------------|----------------|
G|2---------------|0---------------|----------------|----------------|
D|4---------------|2---------------|9-------7-------|5-------4-------|
A|5---------------|3---------------|10------9-------|7-------5-------|
E|----------------|----------------|10------10------|7-------5-------|

Guitar 2
e|----------------|----------------|----------------|----------------|
B|3---------------|1---------------|----------------|----------------|
G|----------------|----------------|----------------|----------------|
D|----------------|----------------|----------------|----------------|
A|----------------|----------------|----------------|----------------|
E|----------------|----------------|----------------|----------------|

You will die, but now your life is free, take pride in what is



Guitar 1
  C                Cm               Em               C
e|----------------|----------------|----------------|----------------|
B|----------------|----------------|----0-------3---|--------------0-|
G|----------------|----------------|0-2-------------|2-0-------------|
D|2-------2-------|1-------1-------|----------------|--------2---0---|
A|3-------3-------|3-------3-------|----------------|----------------|
E|------------3---|------------3---|----------------|----------------|

Guitar 2
e|----------------|----------------|0-------0-------|----------------|
B|----------------|----------------|----------------|1-------1-------|
G|----------------|----------------|----------------|----------------|
D|----------------|----------------|----------------|----------------|
A|----------------|----------------|----------------|----------------|
E|----------------|----------------|----------------|----------------|

sure to die.



Guitar 1
  G                                 Em               C
e|----------------|----------------|----------------|----------------|
B|----------------|----------------|----0-------3---|----------------|
G|----------------|----------------|0-2-------------|2-0-------------|
D|----------------|----------------|----------------|--------2-------|
A|----------------|----------------|----------------|----------------|
E|----------------|----------------|----------------|----------------|

Guitar 2
e|3-------3-------|3-------3-------|0-------0-------|----------------|
B|----------------|----------------|----------------|1-------1-------|
G|----------------|----------------|----------------|----------------|
D|----------------|----------------|----------------|----------------|
A|----------------|----------------|----------------|----------------|
E|----------------|----------------|----------------|----------------|



Guitar 1
G
e|----------------|
B|----------------|
G|--------0-------|
D|0-------0-------|
A|--------2-------|
E|----------------|

Guitar 2
e|----------------|
B|----------------|
G|----------------|
D|----------------|
A|----------------|
E|----------------|

            
            
Suggest correction
Creating personal tab
Creating personal tab
You can edit any tab online and save it as your Personal.

You can edit, replace or remove any tab part or add personal notes – all changes will be seen only by you.

Personal tabs can be accessed anytime from any device, even offline.
Learn more »
Give kudos to tab author, rate the tab!
1 2 3 4 5
comments
print report bad tab
guest
You may want to rate the tab now too:
select rating
Wanna post a correction for this tab? Suggest correction