Oops, an error
Loading. Please wait.

Forever Bass Tab

version 1
version 1

Whole song

263 views 1 this week
2 commentsread comments
1 2 3 4 5
3 more votes to show rating
add to favorites
launch autoscroll
font size
0
reset
guitar tuner
Autoscroll
slow
fast
+/-
esc
set tempo
stop
Help us to improve Ultimate-Guitar.com Take our survey!
×
Author
Difficulty
note: This tab is only the notes, not the timings. You'll understand the timing when you 
playing.

Credit: Jack Halliday (TT bassist)

Intro
----------------------|
----------------------|
---3---2--------------|
------------1---3-----|

Verse 1 'We serve and fight'
---------------------|
---------------------|
---3---0-------------| x2
------------1---3----|

Pre-Chorus 'Could this be the one song'
----------------------------|
----------------------------|
---2/3---2/3----------------|
-----------------5---3------|

Chorus 'Things will never be the same'
----------------------|
----------------------|
---3---0--------------| x2
------------1---3-----|

Verse 2 (same as verse 1)
Pre-Chorus
Chorus

Bridge
----------------------|
----------------------|
---3------------------| x2
-------1---5---3------|

Slow 'If your the last one'
---------------------|
---------------------|
---3---0-------------| x6
------------1(3)-----|

Break Down
---------------------|
---------------------|
--3---2--------------| x2
-----------1---3-----|

Chorus
Outro (same as intro)
Suggest correction
Give kudos to tab author, rate the tab!
1 2 3 4 5
comments
print report bad tab
2 comments total.
0 reply
Jay Sanderson 272 Sep 24, 2009 03:49 PM

Pretty sure you just copied this off the myspace...

0 reply
disturbedfxcker 196 Sep 24, 2009 03:54 PM

duhh. why else does it say "credit: jack halliday"? -_-

guest
You may want to rate the tab now too:
select rating
Wanna post a correction for this tab? Suggest correction