Oops, an error
Loading. Please wait.

Forever Bass Tab

version 2
version 2

Whole song

420 views 1 this week
no commentswrite comment
1 2 3 4 5
please rate
add to favorites
launch autoscroll
font size
0
reset
guitar tuner
Autoscroll
slow
fast
+/-
esc
set tempo
stop
Help us to improve Ultimate-Guitar.com Take our survey!
×
Author
Difficulty
-------------------------------------------------------------------------------
			     FOREVER - Twenty Twenty
-------------------------------------------------------------------------------

Tabbed By : Jay Sanderson
e-mail: s.o.admin@hotmail.com

Tuning: Standard

Intro:

G|-------------------------------------------------------------------|
D|-------------------------------------------------------------------|
A|--3-3-3-3-3-3-3-3-2-2-2-2-2-2-2-2----------------------------------|
E|----------------------------------1-1-1-1-1-1-1-1-3-3-3-3-3-3-3-3--|


Verse 1:

G|-------------------------------------------------------|
D|-------------------------------------------------------|
A|--333333333333-000000000000----------------------------|
E|----------------------------111111111111-333333333333--| x2


Pre-Chorus:

G|----------------------------------|
D|----------------------------------|
A|--3-3-3223-3-3223-3-322-----------|
E|------------------------5~----3~--|

Chorus:

G|-----------------------------------------------------------|
D|-----------------------------------------------------------|
A|--333333333333-000000000000---------------------------(3)--|
E|----------------------------111111111111-333333333333------| x2


Verse 2:

G|-------------------------------------------------------|
D|-------------------------------------------------------|
A|--333333333333-000000000000----------------------------|
E|----------------------------111111111111-333333333333--| x2


Pre-Chorus:

G|----------------------------------|
D|----------------------------------|
A|--3-3-3223-3-3223-3-322-----------|
E|------------------------5~----3~--|


Chorus:

G|-------------------------------------------------------|
D|-------------------------------------------------------|
A|--333333333333-000000000000----------------------------|
E|----------------------------111111111111-333333333333--| x2


Bridge:

G|----------------------------------------------|
D|----------------------------------------------|
A|--333333333------------------------------(3)--|
E|-----------111111111--555555555-333333333-----| x2

G|-----------------|
D|-----------------|
A|--3---0----------| x6
E|-----------1(3)--|

G|------------------------------------------------------|
D|------------------------------------------------------|
A|--33333333333-222222222222----------------------------|
E|---------------------------111111111111-333333333333--| x2


Chorus:

G|--------------------------------------------------------| 
D|--------------------------------------------------------|
A|--3333333333333-000000000000----------------------------|
E|-----------------------------111111111111-333333333333--| x2


Outro:

G|-------------------------------------------------|
D|-------------------------------------------------|
A|-33333-00000-------------33333-00000----------3--|
E|-------------11111-33333-------------11111-333---|



Enjoy :)




Suggest correction
What's this?
You can suggest a correction to this tab. Community and Mods will review your correction and vote to approve or reject it.
comments
We did not receive enough feedback on this tab! Please rate:
print report bad tab
1 2 3 4 5
guest
You may want to rate the tab now too:
select rating
Please do not post tabs as comments. Select "correction" instead!