Oops, an error
Loading. Please wait.

Love To Life Tab

1,253 views 1 this week
no commentswrite comment
1 2 3 4 5
please rate
add to favorites
launch autoscroll
font size
0
reset
how to read this tab
guitar tuner
Autoscroll
slow
fast
+/-
esc
set tempo
stop
Help us to improve Ultimate-Guitar.com Take our survey!
×
Author
SkiaMaree 421
listen for timings... it's not perfect for sure ... but it works playing along fine to 
me. please comment/correct!

INTRO:

Guitar 2:

e|--11-11-13-13-------10-10-------------|
B|--------------13-13-------------------|
G|--------------------------------------|  X6
D|--------------------------------------|
A|--------------------------------------|
E|--------------------------------------|

VERSE 1:

Guitar 1 (palm muted)

e|-------------------------------|
B|-------------------------------|
G|--5----------------------------|  X2
D|--5-X16----3-------5-----------|
A|--3--------3-X8----5-X8--------|
E|-----------1-------3-----------|

e|-------------------------------|
B|-------------------------------|
G|--5----------------------------|
D|--5-X16----3-------5-----------|
A|--3--------3-X8----5-X1--------|
E|-----------1-------3-----------|


Guitar 2 (clean)


e|----------------------------------------------------|
B|-------------------------------------1~---1~--------|
G|----------------------------------------------------|
D|-------------------------------------2~---2~--------|
A|-------------------------------------3~---3~--------|
E|----------------------------------------------------|


CHORUS:







Guitar 1:

e|-------------------------------------|
B|-------------------------------------|
G|--5--55------------------------------|  X2
D|--5--55----5-55----3--33----5--55----|
A|--3--33----5-55----3--33----5--55----|
E|-----------3-33----1--11----3—-33----|


Then

Guitar 2:

e|--11-11-13-13-------10-10-------------|
B|--------------13-13-------------------|
G|--------------------------------------|  X2
D|--------------------------------------|
A|--------------------------------------|
E|--------------------------------------|


VERSE 2:

Guitar 1 (palm muted)

e|-------------------------------|
B|-------------------------------|
G|--5----------------------------|  X2
D|--5-X16----3-------5-----------|
A|--3--------3-X8----5-X8--------|
E|-----------1-------3-----------|

e|-------------------------------|
B|-------------------------------|
G|--5----------------------------|
D|--5-X16----3-------5-----------|
A|--3--------3-X8----5-X1--------|
E|-----------1-------3-----------|


CHORUS:

Guitar 1:

e|-------------------------------------|
B|-------------------------------------|
G|--5--55------------------------------|  X4
D|--5--55----5-55----3--33----5--55----|
A|--3--33----5-55----3--33----5--55----|
E|-----------3-33----1--11----3—-33----|

then,

Guitar 2:

e|--11-11-13-13-------10-10-------------|
B|--------------13-13-------------------|
G|--------------------------------------|  X3
D|--------------------------------------|
A|--------------------------------------|
E|--------------------------------------|


right. The next bit isn’t exact because I tend to play it different everytime ... so 
long as it’s with the right notes it tends to sound okay


e|--15-15----16-13-15----15-13-15-15-13-13-15-13------------------------|
B|--------16----------16-------------------------15-16-16-15------------|
G|----------------------------------------------------------------------|
D|------------------------------------------------------------5---------|
A|------------------------------------------------------------5-X19-----|
E|------------------------------------------------------------3---------|

then it’s just the chorus followed by

e|--11-11-13-13-------10-10-------------|
B|--------------13-13-------------------|
G|--------------------------------------|  X4
D|--------------------------------------|
A|--------------------------------------|
E|--------------------------------------|
Suggest correction new What's this?
You can suggest a correction to this tab. Community and Mods will review your correction and vote to approve or reject it.
comments
We did not receive enough feedback on this tab! Please rate:
print report bad tab
1 2 3 4 5
guest
You may want to rate the tab now too:
select rating
Please do not post tabs as comments. Select "correction" instead!