Oops, an error
Loading. Please wait.

We Bow Down tab

162 views 1 this week
no commentswrite comment
1 2 3 4 5
3 more votes to show rating
add to favorites
×
Save as Personal and add changes to this tab that will be seen only by you. Learn more ›
×
You can save this tab as Personal to edit and correct it or add notes. All changes will be seen only by you. Learn more »
launch autoscroll
font size
0
reset
how to read this tab
guitar tuner
edit
Autoscroll
slow
fast
+/-
esc
set tempo
stop
Author
-------------------------------------------------------------------------------
                             WE Bow Down - Twila Paris
-------------------------------------------------------------------------------
Tabbed by:
E-mail:
key of C
Tuning:E-A-D-G-B-e

e|---------------------------------------------------------------------------|
B|---------------------------------------------------------------------------|
G|-----------0--0---0-0--------------------------0---0---0----0-------0---0--|
D|--2---3----------------3---2---0---0--2---2---------------------3----------|
A|--3---3----3--3---3-3--3---3---2---2--3---3----3---3---3----3---3---3---3--|
E|---------------------------------------------------------------------------|
   You are Lord of creation and Lord of my life Lord of the land and the sea
e|---------------------------------------------------------------------------|
B|---------------------------------------------------------------------------|
G|----------0---0---0---0-----------------------------------------0-----2----|
D|--2---3------------------3----2--0----0----2----2---0---2---3--------------|
A|--3---3---3---3---3---3--3----3--2----2----3----3---2----------------------|
E|---------------------------------------------------------------------------|
   You are Lord of the heavens before there was time Lord of all earth you 
e|---------------------------------------------------------------------------|
B|--0---1--------------------------------------------------------------------|
G|---------------------------------------------------------------------------|
D|---------------------------------------------------------------------------|
A|------3--------------------------------------------------------------------|
E|---------------------------------------------------------------------------|
   will be 
e|---------------------------------------------------------------------------|
B|---------------------------------------------------------------------------|
G|----------0---0----------------------------------0----0--------------------|
D|------2---2---2----3--2---0--0----0--0---2---2---2----2---3--2---0--0----0-|
A|------3------------3--3---2--2----2--2---3---3------------3--3---2--2----2-|
E|---------------------------------------------------------------------------|
chorus: we bow down and we worship you as Lord we bow down and we worship you
e|---------------------------------------------------------------------------|
B|------------------------------------------------------------------0----1---|
G|----------0---0-----------------------------------------0-----2------------|
D|--2---2---2---2----3--2---0--0----0---2-----0----2--3----------------------|
A|--3---3------------3--3---2--2----2---3-----2--------------------------3---|
E|---------------------------------------------------------------------------|
   Lord we bow down and we worship you Lord, Lord of all earth you will be  

************************************

| /   slide up
| \   slide down
| h   hammer-on
| p   pull-off
| ~   vibrato
| +   harmonic
| x   Mute note
| b   Bend
| pb  Pre-bend
| br  Bend release
| pbr Pre-bend release
| brb Bend release bend

************************************

            
            
Suggest correction
Creating personal tab
Creating personal tab
You can edit any tab online and save it as your Personal.

You can edit, replace or remove any tab part or add personal notes – all changes will be seen only by you.

Personal tabs can be accessed anytime from any device, even offline.
Learn more »
Give kudos to tab author, rate the tab!
1 2 3 4 5
comments
print report bad tab
guest
You may want to rate the tab now too:
select rating
Wanna post a correction for this tab? Suggest correction