Oops, an error
Loading. Please wait.

Gone To The Wall Bass Tab

version 1
version 1

Whole song

Interactive

88 views 1 this week
no commentswrite comment
1 2 3 4 5
please rate
add to favorites
launch autoscroll
font size
0
reset
guitar tuner
Autoscroll
slow
fast
+/-
esc
set tempo
stop
Help us to improve Ultimate-Guitar.com Take our survey!
×
Author
Tuning
D# G# C# F# A# D#
#----------------------------------PLEASE NOTE---------------------------------#
#This file is the author's own work and represents their interpretation of the #
#song. You may only use this file for private study, scholarship, or research. #
#------------------------------------------------------------------------------#

GONE TO THE WALL (Bassline)
As recorded by Twilightning
(From the 2003 Album DELIRIUM VEIL)

Transcribed by Pete (Delirium_Veil)
	

Words and Music by Ville Wallenius
Arranged by Twilightning

Gtr I (Eb Ab Db Gb) - 'Jussi Kainulainen'

 Intro
  Q=212
 2/4     4/4
  Gtr I
  Q  Q    W          W          W          H    Q  Q
|-------|----------|----------|----------|-------------|
|-------|----------|----------|----------|-------------|
|-3--5--|----------|----------|----------|------3--5---|
|-------|----------|----------|----------|-------------|


  +E  E H.        W          Q.   Q.   Q    +Q   H.
|---------------|----------|--------------|------------|
|---------------|----------|--------------|------------|
|-(5)-----------|----------|-1----0----3--|-(3)--------|
|---------------|----------|--------------|------------|


  Q  E E E E E E   E E E E E E E E   E E E E E E E E   E E E E E E E E
|----------------|-----------------|-----------------|-----------------|
|----------------|-----------------|-----------------|---------0-3-2---|
|-5--5-5-5-5-5-5-|-5-5-5-5-5-5-5-5-|-5-1-1-1-0-0-0-1-|-1-1-0-3-------3-|
|----------------|-----------------|-----------------|-----------------|


  Q  E E E E E E   E E E E E E E E
|----------------|-----------------|
|----------------|-----------------|
|-5--5-5-5-5-5-5-|-5-5-5-5-5-5-5-5-|
|----------------|-----------------|


                                    9/8
  E E E E E E E E   E E E Q  E E E   Q  H.      E
|-----------------|----------------|--------------|
|-----------------|----------------|--------------|
|-5-1-1-1-0-0-0-3-|-3-3-3-3--3-3-3-|-3------------|
|-----------------|----------------|--------------|


 4/4
  Q  E E E E E E   E E E E E E E E   E E E E E E E E   E E E E E E E E
|----------------|-----------------|-----------------|-----------------|
|----------------|-----------------|-----------------|-----------------|
|-5--5-5-5-5-5-5-|-1-1-1-1-1-1-1-1-|-3-3-3-3-3-3-3-3-|-----------------|
|----------------|-----------------|-----------------|-3-3-3-3-3-3-3-3-|


  E E E E E E E E   E E E E E E E E   E E E E E E E E   E E E E E E E E
|-----------------|-----------------|-----------------|-----------------|
|-----------------|-----------------|-----------------|---------3-2-----|
|-5-5-5-5-5-5-5-5-|-1-1-1-1-1-1-1-1-|-3-3-3-3-3-3-3-3-|-3-0-3-5-----3-0-|
|-----------------|-----------------|-----------------|-----------------|


  E E E E E E E E   E E E E E E E E   E E E E E E E E   E E E E E E E E
|-----------------|-----------------|-----------------|-----------------|
|-----------------|-----------------|-----------------|-----------------|
|-5-5-5-5-5-5-5-5-|-1-1-1-1-1-1-1-1-|-3-3-3-3-3-3-3-3-|-----------------|
|-----------------|-----------------|-----------------|-3-3-3-3-3-3-3-3-|


  E E E E E E E E   E E E E E E E E   E E E E E E E E   H    Q  E E
|-----------------|-----------------|-----------------|-------------|
|-----------------|-----------------|-----------------|-------------|
|-5-5-5-5-5-5-5-5-|-1-1-1-1-1-1-1-1-|-3-3-3-3-3-3-3---|-----------5-|
|-----------------|-----------------|-----------------|-------------|


 Verse
  +E  E H.        H.      E E   Q  E Q  E E E   +E  E E Q  E E E
|---------------|-------------|---------------|------------------|
|---------------|-------------|---------------|------------------|
|-(5)-----------|-----------1-|-1--1-1--1-1-1-|-(1)-1-1-1--1-1-1-|
|---------------|-------------|---------------|------------------|


  Q  E Q  E E E   +E  E E Q  E E E   Q  E Q  E E E   +E  E E Q  E E E
|---------------|------------------|---------------|------------------|
|---------------|------------------|---------------|------------------|
|-3--3-3--3-3-3-|-(3)-3-3-3--3-3-3-|---------------|------------------|
|---------------|------------------|-3--3-3--3-3-3-|-(3)-3-3-3--3-3-3-|


  Q  E Q  E E E   +E  E E Q  E E E   Q  E Q  E E E   +E  E E Q  E E E
|---------------|------------------|---------------|------------------|
|---------------|------------------|---------------|------------------|
|-5--5-5--5-5-5-|-(5)-5-5-5--5-5-5-|-1--1-1--1-1-1-|-(1)-1-1-1--1-1-1-|
|---------------|------------------|---------------|------------------|


                                                    9/8
  Q  E Q  E E E   +E  E E Q  E E E   Q  E Q  E E E   +E  Q  E E Q  E E
|---------------|------------------|---------------|--------------------|
|---------------|------------------|---------------|--------------------|
|-3--3-3--3-3-3-|-(3)-3-3-3--3-3-3-|---------------|-----3--3-3-3--3-3--|
|---------------|------------------|-3--3-3--3-3-3-|-(3)----------------|


 Pre-Chorus
 4/4
  W          +W           +W           +W
|----------|------------|------------|--------|
|----------|------------|------------|--------|
|-1--------|-(1)--------|-(1)--------|-(1)----|
|----------|------------|------------|--------|


  +W           +W           Q  E E Q  E E   W
|------------|------------|---------------|------|
|------------|------------|---------------|------|
|-(1)--------|-(1)--------|---------------|-3----|
|------------|------------|-1--1-1-1--1-1-|------|


    Q  E E Q  E E   E E H.          Q  Q  E E E E   W
||----------------|--------------||---------------|------||
||o---------------|-------------o||---------------|------||
||o-1--1-1-1--1-1-|-1-----------o||-3--3--3-3-3-3-|------||
||----------------|--------------||---------------|------||


 Chorus
  $
  $$
  Q  E E E E E E   E E E E E E E E   E E E E E E E E   E E E E E E E E
|----------------|-----------------|-----------------|-----------------|
|----------------|-----------------|-----------------|-----------------|
|-5--5-5-5-5-5-5-|-1-1-1-1-1-1-1-1-|-3-3-3-3-3-3-3-3-|-----------------|
|----------------|-----------------|-----------------|-3-3-3-3-3-3-3-3-|


  E E E E E E E E   E E E E E E E E   E E E E E E E E   E E E E E E E E
|-----------------|-----------------|-----------------|-----------------|
|-----------------|-----------------|-----------------|---------3-2-----|
|-5-5-5-5-5-5-5-5-|-1-1-1-1-1-1-1-1-|-3-3-3-3-3-3-3-3-|-3-0-3-5-----3-0-|
|-----------------|-----------------|-----------------|-----------------|


                                                               To Coda
                                                               To Coda
  E E E E E E E E   E E E E E E E E   E E E E E E E E   E E E E E E E E
|-----------------|-----------------|-----------------|-----------------|
|-----------------|-----------------|-----------------|-----------------|
|-5-5-5-5-5-5-5-5-|-1-1-1-1-1-1-1-1-|-3-3-3-3-3-3-3-3-|-----------------|
|-----------------|-----------------|-----------------|-3-3-3-3-3-3-3-3-|


  E E E E E E E E   E E E E E E E E   E E E E E E E E
|-----------------|-----------------|-----------------|
|-----------------|-----------------|-----------------|
|-5-5-5-5-5-5-5-5-|-1-1-1-1-1-1-1-1-|-3-3-3-3-3-3-3---|
|-----------------|-----------------|-----------------|


                               7/8
  H    Q  E E   +E  E H.        H    E E E
|-------------|---------------|------------||
|-------------|---------------|------------||
|-----------5-|-(5)-----------|------6-6-6-||
|-------------|---------------|------------||


 2nd Verse
 4/4
  Q  E Q  E E E   +E  E E Q  E E E   Q  E Q  E E E   +E  E E Q  E E E
|---------------|------------------|---------------|------------------|
|---------------|------------------|---------------|------------------|
|---------------|------------------|-3--3-3--3-3-3-|-(3)-3-3-3--3-3-3-|
|-0--0-0--0-0-0-|-(0)-0-0-0--0-0-0-|---------------|------------------|


  Q  E Q  E E E   +E  E E Q  E E E   Q  E Q  E E E   +E  Q  Q  Q  E
|---------------|------------------|---------------|----------------|
|---------------|------------------|---------------|----------------|
|-5--5-5--5-5-5-|-(5)-5-5-5--5-5-5-|---------------|----------------|
|---------------|------------------|-5--5-5--5-5-5-|-(5)-5--5--5--5-|


  Q  E Q  E E E   +E  E E Q  E E E   Q  E Q  E E E   +E  E E Q  E E E
|---------------|------------------|---------------|------------------|
|---------------|------------------|---------------|------------------|
|---------------|------------------|-3--3-3--3-3-3-|-(3)-3-3-3--3-3-3-|
|-0--0-0--0-0-0-|-(0)-0-0-0--0-0-0-|---------------|------------------|


                                                    9/8
  Q  E Q  E E E   +E  E E Q  E E E   Q  E Q  E E E   +E  Q  E E Q  E E
|---------------|------------------|---------------|--------------------||
|---------------|------------------|---------------|--------------------||
|-5--5-5--5-5-5-|-(5)-5-5-5--5-5-5-|---------------|-----5--5-5-5--5-5--||
|---------------|------------------|-5--5-5--5-5-5-|-(5)----------------||


 Pre-Chorus
 4/4
  W          +W           +W           +W
|----------|------------|------------|--------|
|----------|------------|------------|--------|
|-1--------|-(1)--------|-(1)--------|-(1)----|
|----------|------------|------------|--------|


  +W           +W           Q  E E Q  E E   W
|------------|------------|---------------|------|
|------------|------------|---------------|------|
|-(1)--------|-(1)--------|---------------|-3----|
|------------|------------|-1--1-1-1--1-1-|------|


                                          D.S. al Coda
    Q  E E Q  E E   E E H.          Q  Q  E E E E   W
||----------------|--------------||---------------|-------||
||o---------------|-------------o||---------------|-------||
||o-1--1-1-1--1-1-|-1-----------o||-3--3--3-3-3-3-|-------||
||----------------|--------------||---------------|-------||


  &
  E E E E E E E E   E E E E E E E E   E E E E E E E E   E E E E E E E E
|-----------------|-----------------|-----------------|-----------------||
|-----------------|-----------------|-----------------|-----------------||
|-5-5-5-5-5-5-5-5-|-1-1-1-1-1-1-1-1-|-3-3-3-3-3-3-3-3-|-3-3-3-3-3-3-3-3-||
|-----------------|-----------------|-----------------|-----------------||


 Guitar Solo - Ville
  E E E E E E E E   E E E E E E E E   E E E E E E E E   E E E E E E E E
|-----------------|-----------------|-----------------|-----------------|
|-----------------|-----------------|-----------------|-----------------|
|-7-7-7-7-7-7-7-7-|-3-3-3-3-3-3-3-3-|-----------------|-----------------|
|-----------------|-----------------|-3-3-3-3-3-3-3-3-|-5-5-5-5-5-5-5-5-|


  E E E E E E E E   E E E E E E E E   E E E E E E E E   E E E E E E E E
|-----------------|-----------------|-----------------|-----------------|
|-----------------|-----------------|-----------------|-----------------|
|-7-7-7-7-7-7-7-7-|-5-5-5-5-5-5-5-5-|-----------------|-----------------|
|-----------------|-----------------|-5-5-5-5-5-5-5-5-|-5-5-5-5-5-5-5-5-|


  E E E E E E E E   E E E E E E E E   E E E E E E E E   E E E E E E E E
|-----------------|-----------------|-----------------|-----------------|
|-----------------|-----------------|-----------------|-----------------|
|-7-7-7-7-7-7-7-7-|-3-3-3-3-3-3-3-3-|-----------------|-1-1-1-1-1-1-1-1-|
|-----------------|-----------------|-3-3-3-3-3-3-3-3-|-----------------|


  E E E E E E E E   E E E E E E E E   E E E E E E E E   Q  E E Q  E E
|-----------------|-----------------|-----------------|---------------|
|-----------------|-----------------|-----------------|---------------|
|-7-7-7-7-7-7-7-7-|-3-3-3-3-3-3-3-3-|-5-5-5-5-5-5-5-5-|-5--5-5-6--6-6-|
|-----------------|-----------------|-----------------|---------------|


 Breakdown
  E E E E E E Q    E E E E Q  E E   E E E E E E E E   E E Q  E E E E
|----------------|----------------|-----------------|----------------|
|----------------|----------------|-----------------|----------------|
|----------------|----------------|---------3---3-3-|-3------3-3-3---|
|-0---0-0-0------|-0-0-0------0-0-|-0---0-0---------|----------------|


  E E E E E E E E   E E Q  E E E E
|-----------------|----------------|
|-----------------|----------------|
|-3---3-3-5---5-5-|-5------5-5-5---|
|-----------------|----------------|


  Q  E E E E E E   E E E E E E Q    E E E E E E E E
|----------------|----------------|-----------------|
|----------------|----------------|-----------------|
|----5-5-5---5-5-|----------------|-----------------|
|----------------|-5---5-5-5------|-5-5-5---5---5-5-|


  E E E E E E Q    E E E E Q  E E   E E E E E E E E   E E Q  E E E E
|----------------|----------------|-----------------|----------------|
|----------------|----------------|-----------------|----------------|
|----------------|----------------|---------3-------|----------------|
|-0---0-0-0------|-0-0-0------0-0-|-0---0-0-----0-0-|-0------0-0-0---|


  E E E E E E E E   E E Q  E E E E
|-----------------|----------------|
|-----------------|----------------|
|-----------------|----------------|
|-0---0-0-5---0-0-|-0------0-0-0---|


  Q  E E E E E E   E E E E E E Q    E E E E Q  E E
|----------------|----------------|----------------||
|----------------|----------------|----------------||
|----------------|-5--------------|----------------||
|----0-0-0---0-0-|-----0-0-0------|-0-0-0---0--0-0-||


 Interlude
  E E E E E E Q    E E E E Q  E E   E E E E E E E E   E E Q  E E E E
|----------------|----------------|-----------------|----------------|
|----------------|----------------|---------3-------|----------------|
|-0---0-0-0------|-0-0-0------0-0-|-0---0-0-----0-0-|-0------0-0-0---|
|----------------|----------------|-----------------|----------------|


  E E E E E E E E   E Q  E E E E E
|-----------------|----------------|
|---------5-------|----------------|
|-0---0-0-----0-0-|-0------0-0-0---|
|-----------------|----------------|


  Q  E E E E E E   E E E E E E Q    E E E E E E E E
|----------------|----------------|-----------------|
|----------------|----------------|-----------------|
|----0-0-0---0-0-|-5---0-0-0------|-0-0-0---0---0-0-|
|----------------|----------------|-----------------|


  E E E E E E Q    E E E E Q  E E   E E E E E E E E   E E Q  E E E E
|----------------|----------------|-----------------|----------------|
|----------------|----------------|---------3-------|----------------|
|-0---0-0-0------|-0-0-0------0-0-|-0---0-0-----0-0-|-0------0-0-0---|
|----------------|----------------|-----------------|----------------|


  E E E E E E E E   E E Q  E E E E   Q  E E E E E E   E E E E E E E E   W
|-----------------|----------------|----------------|-----------------|------||
|-----------------|----------------|----------------|-----------------|------||
|-0---0-0-5---0-0-|-0------0-0-0---|----0-0-0---0-0-|-----------------|------||
|-----------------|----------------|----------------|-3---3-3-3---3-3-|-3----||


   Guitar Solo - Tommi
    Q  E E Q  E E   E H.      E   Q  E E Q  E E   E H.      E
||----------------|-------------|---------------|--------------|
||o---------------|-------------|---------------|--------------|
||o-1--1-1-1--1-1-|-1-----------|-1--1-1-1--1-1-|-1------------|
||----------------|-------------|---------------|--------------|


  1.                                                        2.
                                                            6/4
  Q  E E Q  E E   E H.      E   Q  E E Q  E E   W            H    H    H
|---------------|-------------|---------------|-----------||----------------||
|---------------|-------------|---------------|----------o||----------------||
|-1--1-1-1--1-1-|-1-----------|---------------|-3--------o||------6----8----||
|---------------|-----------1-|-1--1-1-1--1-1-|-----------||-8--------------||


   Bridge
   4/4
    W          +H.      Q    W          H.      Q
||-----------|-------------|----------|-------------|
||o----------|-------------|----------|-------------|
||o----------|-------------|----------|-------------|
||--2--------|-(2)------2--|-5--------|-4-------4---|


  1.
  W          +H.      Q    W          W
|----------|-------------|----------|-------||
|----------|-------------|----------|------o||
|-4--------|-(4)------4--|-5--------|-4----o||
|----------|-------------|----------|-------||


  2.
                                     6/4
  W          +W           H    H      H    W
|----------|------------|-----------|-----------|
|----------|------------|-----------|-----------|
|-4--------|-(4)--------|-4----3----|-6----5----|
|----------|------------|-----------|-----------|


             D.S.S. al Dbl. Coda
 4/4
  +W           +W           +W
|------------|------------|---------||
|------------|------------|---------||
|-(5)--------|-(5)--------|-(5)-----||
|------------|------------|---------||


  &&
  E E E E E E E E   E E E E E E E E   E E E E E E E E   E E E E E E E E
|-----------------|-----------------|-----------------|-----------------||
|-----------------|-----------------|-----------------|-----------------||
|-5-5-5-5-5-5-5-5-|-1-1-1-1-1-1-1-1-|-3-3-3-3-3-3-3-3-|-3-3-3-3-3-3-3-3-||
|-----------------|-----------------|-----------------|-----------------||


    E E E E E E E E   E E E E E E E E   E E E E E E E E   E E E E E E E E
||------------------|-----------------|-----------------|------------------|
||o-----------------|-----------------|-----------------|------------------|
||o-7-7-7-7-7-7-7-7-|-3-3-3-3-3-3-3-3-|-5-5-5-5-5-5-5-5-|------------------|
||------------------|-----------------|-----------------|-5-5-5-5-5-5-5-5--|


  1.
  E E E E E E E E   E E E E E E E E   E E E E E E E E   E E E E E E E E
|-----------------|-----------------|-----------------|------------------||
|-----------------|-----------------|-----------------|-----------5-4---o||
|-7-7-7-7-7-7-7-7-|-3-3-3-3-3-3-3-3-|-5-5-5-5-5-5-5-5-|-5-5---5-7-----5-o||
|-----------------|-----------------|-----------------|-----7------------||


  2.
  E E E E E E E E   E E E E E E E E
|-----------------|-----------------|
|-----------------|-----------------|
|-7-7-7-7-7-7-7-7-|-3-3-3-3-3-3-3-3-|
|-----------------|-----------------|


                           7/8
  |-3-| |-3-| |-3-| |-3-|   |-3-| |-3-| |-3-|
  E E E E E E E E E E E E   E E E E E E E E E E
|-------------------------|----------------------|
|-------------------------|----------------------|
|-5-5-5-5-5-5-5-5-5-5-5-5-|-5-5-5-5-5-5-5-5-5-5--|
|-------------------------|----------------------|


 Outro
 4/4
  Q  E E E E E E   E E E E E E E E   Q  E E E E E E   E E Q.   E Q
|----------------|-----5-----------|----------------|---------------|
|----------------|-5-6---6-5-6-5---|----------------|-5-------------|
|-5--5-5-5-8-5-8-|---------------8-|-5--5-5-5-8-5-8-|---1-1----3-3--|
|----------------|-----------------|----------------|---------------|


                                    9/8
  Q  E E E E E E   E E E E E E E E   Q  E E E E Q.
|----------------|-----5-----------|-----------------|
|----------------|-5-6---6-5-6-5---|-----------------|
|-5--5-5-5-8-5-8-|---------------8-|-5--5-5-5-5------|
|----------------|-----------------|-----------------|


 4/4
  W          W          Q  H.
|----------|----------|----------*|
|----------|----------|----------*|
|----------|----------|-5--------*|
|----------|----------|----------*|



Duration Legend
---------------
W - whole; H - half; Q - quarter; E - 8th; S - 16th; T - 32nd; X - 64th; a - acciaccatura
+ - note tied to previous; . - note dotted; .. - note double dotted
Uncapitalized letters represent notes that are staccato (1/2 duration)
Irregular groupings are notated above the duration line
Duration letters will always appear directly above the note/fret number it represents the
duration for.  Duration letters with no fret number below them represent rests.  Multi-
bar rests are notated in the form Wxn, where n is the number of bars to rest for.  Low
melody durations appear below the staff

Tablature Legend
----------------
 h   - hammer-on
 p   - pull-off
 b   - bend
 pb  - pre-bend
 r   - bend release (if no number after the r, then release immediately)
 /\  - slide into or out of (from/to "nowhere")
 s   - legato slide
 S   - shift slide
 - natural harmonic
[n]  - artificial harmonic
n(n) - tapped harmonic
 ~   - vibrato
 tr  - trill
 T   - tap
 TP  - trem. picking
 PM  - palm muting
\n/  - tremolo bar dip; n = amount to dip
 \n  - tremolo bar down
 n/  - tremolo bar up
/n\  - tremolo bar inverted dip
 =   - hold bend; also acts as connecting device for hammers/pulls
 <> - volume swell (louder/softer)
 x   - on rhythm slash represents muted slash
 o   - on rhythm slash represents single note slash

Misc Legend
-----------
 |  - bar
||  - double bar
||o - repeat start
o|| - repeat end
*|  - double bar (ending)
 :  - bar (freetime)
 $  - Segno
 &  - Coda
Tempo markers -  = BPM(8/16=s8/s16), where s8 = swing 8ths, s16 = swing 16ths

Suggest correction
What's this?
You can suggest a correction to this tab. Community and Mods will review your correction and vote to approve or reject it.
comments
We did not receive enough feedback on this tab! Please rate:
print report bad tab
1 2 3 4 5
guest
You may want to rate the tab now too:
select rating
Please do not post tabs as comments. Select "correction" instead!