Oops, an error
Loading. Please wait.

Chaser Tab

556 views 15 this week
no commentswrite comment
1 2 3 4 5
x 3
add to favorites
launch autoscroll
font size
0
reset
how to read this tab
guitar tuner
×
Best way to learn
"Chaser"
Autoscroll
slow
fast
+/-
esc
set tempo
stop
Author
Difficulty
Tuning
intermediate
E A D G B E
Disclaimer: This is only Barry's guitar part not Sam's  

Hope you enjoy it.
If you have any corrections my email is: thegamingwolf069@gmail.com

[Intro]

e|-xxxxxxxxxxxxxxx-----------------------------------------------------------|
B|-xxxxxxxxxxxxxxx-----------------------------------------------------------|
G|-xxxxxxxxxxxxxxx-----------------------------------------------------------|
D|-xxxxxxxxxxxxxxx----7-7---5--5---------------------------------------------| X4
A|-000000000000000----7-7---5--5---------------------------------------------|
E|-000000000000000----5-5---3--3---------------------------------------------|


[Verse]

e|-xxxxxxxxxxxxxxx-----------------------------------------------------------|
B|-xxxxxxxxxxxxxxx-----------------------------------------------------------|
G|-xxxxxxxxxxxxxxx-----------------------------------------------------------|
D|-xxxxxxxxxxxxxxx----7-7---5--5---------------------------------------------| X4
A|-000000000000000----7-7---5--5---------------------------------------------|
E|-000000000000000----5-5---3--3---------------------------------------------|

[PreChorus]

e|---------------------------------------------------------------------------|
B|---------------------------------------------------------------------------|
G|---------------------------------------------------------------------------|
D|--5--7--5--7---9-7-5-3-----------------------------------------------------|
A|--5--7--5--7---9-7-5-3-----------------------------------------------------|
E|--3--5--3--5---7-5-3-1-----------------------------------------------------|


[Chorus]

e|-----------------|-----------------|-----------------|-----------------|
B|-----------------|-----------------|-----------------|-----------------|
G|-----------------|-----------------|-6---6---6---6---|---------4---4---|
D|-2---2---2---2---|-4---4---4---4---|-6---6---6---6---|-6---6---4---4---| X2
A|-2---2---2---2---|-4---4---4---4---|-4---4---4---4---|-6---6---2---2---|
E|-0---0---0---0---|-2---2---2---2---|-----------------|-4---4-----------|

[PreVerse?]

e|-xxxxxxxxxxxxxxx-----------------------------------------------------------|
B|-xxxxxxxxxxxxxxx-----------------------------------------------------------|
G|-xxxxxxxxxxxxxxx-----------------------------------------------------------|
D|-xxxxxxxxxxxxxxx----7-7---5--5---------------------------------------------| X4
A|-000000000000000----7-7---5--5---------------------------------------------|
E|-000000000000000----5-5---3--3---------------------------------------------|

[Verse]

e|-xxxxxxxxxxxxxxx-----------------------------------------------------------|
B|-xxxxxxxxxxxxxxx-----------------------------------------------------------|
G|-xxxxxxxxxxxxxxx-----------------------------------------------------------|
D|-xxxxxxxxxxxxxxx----7-7---5--5---------------------------------------------| X4
A|-000000000000000----7-7---5--5---------------------------------------------|
E|-000000000000000----5-5---3--3---------------------------------------------|

[PreChorus]

e|---------------------------------------------------------------------------|
B|---------------------------------------------------------------------------|
G|---------------------------------------------------------------------------|
D|--5--7--5--7---9-7-5-3-----------------------------------------------------|
A|--5--7--5--7---9-7-5-3-----------------------------------------------------|
E|--3--5--3--5---7-5-3-1-----------------------------------------------------|

[Chorus]

e|-----------------|-----------------|-----------------|-----------------|
B|-----------------|-----------------|-----------------|-----------------|
G|-----------------|-----------------|-6---6---6---6---|---------4---4---|
D|-2---2---2---2---|-4---4---4---4---|-6---6---6---6---|-6---6---4---4---| X4
A|-2---2---2---2---|-4---4---4---4---|-4---4---4---4---|-6---6---2---2---|
E|-0---0---0---0---|-2---2---2---2---|-----------------|-4---4-----------|


[Bridge
This Starts At The Second Part Of The Solo
e|-xxxxxxxxxxxxxx------------xxxx--------------------------------------------|
B|-xxxxxxxxxxxxxx------------xxxx--------------------------------------------|
G|-xxxxxxxxxxxxxx------------xxxx--------------------------------------------|
D|-xxxxxxxxxxxxxx--77777777--xxxx--9-7-5-3-0---------------------------------|
A|-00000000000000--77777777--0000--9-7-5-3-0---------------------------------|
E|-00000000000000--55555555--0000--7-5-3-1-0---------------------------------|

[PreChorus]

e|-xxxxxxxxxxxxxxx-----------------------------------------------------------|
B|-xxxxxxxxxxxxxxx-----------------------------------------------------------|
G|-xxxxxxxxxxxxxxx-----------------------------------------------------------|
D|-xxxxxxxxxxxxxxx----7-7---5--5---------------------------------------------| X2
A|-000000000000000----7-7---5--5---------------------------------------------|
E|-000000000000000----5-5---3--3---------------------------------------------|

[Chorus]

e|-----------------|-----------------|-----------------|-----------------|
B|-----------------|-----------------|-----------------|-----------------|
G|-----------------|-----------------|-6---6---6---6---|---------4---4---|
D|-2---2---2---2---|-4---4---4---4---|-6---6---6---6---|-6---6---4---4---| X4
A|-2---2---2---2---|-4---4---4---4---|-4---4---4---4---|-6---6---2---2---|
E|-0---0---0---0---|-2---2---2---2---|-----------------|-4---4-----------|


[Outro]

e|-xxxxxxxxxxxxxxx-----------------------------------------------------------|
B|-xxxxxxxxxxxxxxx-----------------------------------------------------------|
G|-xxxxxxxxxxxxxxx-----------------------------------------------------------|
D|-xxxxxxxxxxxxxxx----7-7---5--5---------------------------------------------| X2
A|-000000000000000----7-7---5--5---------------------------------------------|
E|-000000000000000----5-5---3--3---------------------------------------------|


************************************

| x   Dead note

************************************
Suggest correction
Give kudos to tab author, rate the tab!
1 2 3 4 5
comments
print report bad tab
guest
You may want to rate the tab now too:
select rating
Wanna post a correction for this tab? Suggest correction