Oops, an error
Loading. Please wait.

Old Grey Face Tab

2,232 views 9 this week
1 commentread comment
1 2 3 4 5
excellent!
x 3
add to favorites
launch autoscroll
font size
0
reset
how to read this tab
guitar tuner
Autoscroll
slow
fast
+/-
esc
set tempo
stop
Help us to improve Ultimate-Guitar.com Take our survey!
×
Author
Difficulty
Tuning
novice
D A D G B E
-------------------------------------------------------------------------------
                             Old Grey Face - Twin Atlantic
-------------------------------------------------------------------------------
Tabbed by: TJKillerGuitar6

Tuning:Drop D 
D,A,D,G,B,E 

Verse:

Gtr I (Light dist.)

|---------------------|
|---------------------|
|3-3-333-3------------|  x4
|3-3-333-3--0000-0000-|
|1-1-111-1--0000-0000-|
|-----------0000-0000-|

Stop then repeat the riff 4 more time then play this

Gtr II (Light dist.)

|---------------|
|---------------|
|3-3-333-3------|
|3-3-333-3--0-0-|
|1-1-111-1--1-1-|
|-----------0-0-|

Chorus:

Both Gtrs

|---------------------------------------------------------------------------|
|---------------------------------------------------------------------------|
|33333333-55555555----------88888888-33333333-55555555----------8-8-8-------|
|33333333-55555555-00000000-88888888-33333333-55555555-00000000-8-8-8-------|
|11111111-33333333-00000000-66666666-11111111-33333333-00000000-6-6-6-------|
|------------------00000000----------------------------00000000-------------|

Verse:

Gtr I (Light dist.)

|---------------------|
|---------------------|
|3-3-333-3------------|  x4
|3-3-333-3--0000-0000-|
|1-1-111-1--0000-0000-|
|-----------0000-0000-|

Stop then repeat the riff 4 more time then play this

Gtr 1 (light dist.)

|-----------|
|-----------|
|-----------|
|0000-0000--|
|0000-0000--|
|0000-0000--|


Chorus:

Both Gtrs

|--------------------------------------------------------------------------|
|--------------------------------------------------------------------------|
|33333333-55555555----------88888888-33333333-55555555----------8-8-8-8-8-8|
|33333333-55555555-00000000-88888888-33333333-55555555-00000000-8-8-8-8-8-8|
|11111111-33333333-00000000-66666666-11111111-33333333-00000000-6-6-6-6-6-6|
|------------------00000000----------------------------00000000------------|

Post-Chorus:

Gtr I

|--------------------------------------------------------------------------|
|--------------------------------------------------------------------------|
|15-----------14-15-17-14-15-14-15-17--15------------14-15-17--7-7-7-101010|
|--------------------------------------------------------------7-7-7-101010|
|----13---12-13-----------------------------13--12-13----------5-5-5-8-8-8-|
|--------------------------------------------------------------------------|

Gtr II

|---------------------------------------------------------------------------|
|---------------------------------------------------------------------------|
|33333333-55555555----------88888888-33333333-55555555----------7-7-7-101010|
|33333333-55555555-00000000-88888888-33333333-55555555-00000000-7-7-7-101010|
|11111111-33333333-00000000-66666666-11111111-33333333-00000000-5-5-5-8-8-8-|
|------------------00000000----------------------------00000000-------------|

Pause

Bridge:

In this bit Gtr I does some weird affects and stuff which I couldn't figure out

Gtr II

|---------------------------------------------------------------------------|
|---------------------------------------------------------------------------|
|---------------------------------------------------------------------------|
|--------0----------3----------5---33-11---------0----------3----------5----|
|5-3-0---0--5-3-0---3----5-3-0-5---33-11-5-3-0---0--5-3-0---3----5-3-0-5----|
|------5-0--------5-3----------5---33-11-------5-0--------5-3----------5----|


|-----------|
|-----------|
|-----------|
|3-3-3-1-1-1|
|3-3-3-1-1-1|
|3-3-3-1-1-1|

Gtr I

Tremelo pick all the notes in this section                           
On the final note (21 e string) just keep playing until the end of Gtr II's part.
|22-----------------22------------------------------------18---20---21------|
|----------15---------------15-----15---17--18--20-21-22--------------------|
|---------------------------------------------------------------------------|
|---------------------------------------------------------------------------|
|---------------------------------------------------------------------------|
|---------------------------------------------------------------------------|

Gtr II

|---------------------------------------------------------------------------|
|---------------------------------------------------------------------------|
|---------------------------------------------------------------------------|
|--------0----------3----------5---33-11---------0----------3----------5----|
|5-3-0---0--5-3-0---3----5-3-0-5---33-11-5-3-0---0--5-3-0---3----5-3-0-5----|
|------5-0--------5-3----------5---33-11-------5-0--------5-3----------5----|


|--------------------|
|--------------------|
|--------------------|
|33-11-11-11-11-11-11|
|33-11-11-11-11-11-11|
|33-11-11-11-11-11-11|

Chorus (Key Change)

Both Gtrs

|---------------------------------------------------------------------------|
|---------------------------------------------------------------------------|
|55555555-77777777----------1010101010101010-55555555-77777777--------------|
|55555555-77777777-22222222-1010101010101010-55555555-77777777-22222222-----|
|33333333-55555555-22222222-8-8-8-8-8-8-8-8--33333333-55555555-22222222-----|
|------------------22222222------------------------------------22222222-----|


|-----------------|
|-----------------|
|10-10-10-10-10-10|
|10-10-10-10-10-10|
|8--8--8--8--8--8-|
|-----------------|

Post-chorus 

Gtr I

|--------------------------------------------------------------------|
|--------------------------------------------------------------------|
|17-----------16-17-19-16-17-16-17-19--17------------16-17-19--101010|
|--------------------------------------------------------------101010|
|----15---14-15-----------------------------15--14-15----------8-8-8-|
|--------------------------------------------------------------------|


Gtr II
|---------------------------------------------------------------------------|
|---------------------------------------------------------------------------|
|55555555-77777777----------1010101010101010-55555555-77777777--------------|
|55555555-77777777-22222222-1010101010101010-55555555-77777777-22222222-----|
|33333333-55555555-22222222-8-8-8-8-8-8-8-8--33333333-55555555-22222222-----|
|------------------22222222------------------------------------22222222-----|


|--------|
|--------|
|10-10-10|
|10-10-10|
|8--8--8-|
|--------|

Suggest correction
Give kudos to tab author, rate the tab!
1 2 3 4 5
comments
print report bad tab
1 comment total.
0 reply
Phazix 103 wrote on May 20 2011, 02:01 pm

most of it is good. nice work

guest
You may want to rate the tab now too:
select rating
Please do not post tabs as comments. Select "correction" instead!