Oops, an error
Loading. Please wait.

The Chaser Tab

148 views 3 this week
no commentswrite comment
1 2 3 4 5
2 more votes to show rating
add to favorites
launch autoscroll
font size
0
reset
how to read this tab
guitar tuner
×
Best way to learn
"The Chaser"
Autoscroll
slow
fast
+/-
esc
set tempo
stop
Author
Difficulty
  follow
intermediate
About this tab version
Solo to Twin Atlantic's 'The Chaser' tabbed by ear and from the live recording. Was this info helpful? Yes No
Love this song.
The solo is a fairly simple one, it seems to just go up and down the scale a bit. Listen to the song to catch 
the timing (which again is pretty easy). Good luck!


[Solo]

e|-----------------------------------------------|
B|-----------------------------------------------|
G|-----------------------------------------------|
D|---------12-14-12-14---------12-14-12----------|
A|------14------------------14----------14-12----| 
E|--0-------------------0------------------------|(x2)

e|------------------------|            
B|------------------------|            
G|------------------------|            
D|----------12-14-12-14---|            
A|-------14---------------|
E|--0-0-------------------|(x3)        

e|---------------------|
B|---------------------|
G|--16-14-12-----------|
D|-----------14-12-----|
A|-----------------14--|
E|---------------------|

e|-----------------------------------------------|----------------------------------------------|
B|-----------------------------------------------|----------------------------------------------|
G|-----------------------------------------------|-----------------------------------12-14-12---|
D|---------12-14-12-14---------12-14-12----------|---------12-14-12-14---------12-14------------|
A|------14------------------14----------14-12----|------14------------------14------------------|
E|--0-------------------0------------------------|--0-------------------0-----------------------|

e|-----------------------------------------------|----------------------------------------------|
B|--------------------------------------17-------|----------------------------------------------|
G|---------12-14---------------12-14-12----------|---------12-14-12-14---16-14-12---------------|
D|------14------------------14-------------------|------14------------------------14-12---------|
A|--0-------------------0------------------------|--0-----------------------------------14------|
E|-----------------------------------------------|------------------------------------------0---|
Suggest correction
Give kudos to tab author, rate the tab!
1 2 3 4 5
comments
print report bad tab
guest
You may want to rate the tab now too:
select rating
Wanna post a correction for this tab? Suggest correction