Oops, an error
Loading. Please wait.

What Is Light Where Is Laughter bass

version 1
version 1

Whole song

Interactive

2,103 views 1 this week
no commentswrite comment
1 2 3 4 5
2 more votes to show rating
add to favorites
×
Save as Personal and add changes to this tab that will be seen only by you. Learn more ›
×
You can save this tab as Personal to edit and correct it or add notes. All changes will be seen only by you. Learn more »
launch autoscroll
font size
0
reset
guitar tuner
backing track
0:00
0:00
edit
Autoscroll
slow
fast
+/-
esc
set tempo
stop
Difficulty
-------------------------------------------------------------------------------
	     What is Light, Where is Laughter – Twin Atlantic
-------------------------------------------------------------------------------

Tabbed By: Eight
E-mail: e_kenton@yahoo.com

Tuning: standard
Difficulty: easy
	-Ok I decided to tab this song the day I found it cus there were all these guitar tabs 
no bass for this band so I figured I’d get things started have fun playing and comment!

Intro: no bass

verse:
G|/------------9-----------9---------------------------/---------------------|
D|/77777-77777---7----------9--------------------------/-repeat x2-----------|
A|/----------------77777-7---7-55555-4-4-5-55555-4-5-7-/---------------------|
E|/----------------------------------------------------/---------------------|
				1st time			2nd time
G|-----------9---------9-----/---------------------/-------------------------|
D|--------7--------------9---/---------------------/-------------------7-----|
A|-9-9--9-------7-7--7-----7-/5-5-4-4-5--5-5-4-5-7-/5-5-4-4-5--5-5-4-0-------|
E|---------------------------/---------------------/-------------------------|

Chorus: x2
G|---------------------------------------------------------------------------|
D|-7777777777777777-9999999999999999-----------------------------------------|
A|-----------------------------------55555-4-4-5-55555-/fill/----------------|
E|---------------------------------------------------------------------------|

Verse: x1
Chorus: x2

Bridge: repeat as needed
G|----------------------------------------------------------------------------|
D|-7777-7-7-7-79-9999-9-9-9¬-97-7777-7-7-7-79-9999-9-9-9-7-6-7----------------|
A|----------------------------------------------------------------------------|
E|----------------------------------------------------------------------------|

Chorus:x2

Tada! Ok this sounds right to me but its still my first tab so don’t yell at me over 
pls! well comment nicely have fun!

| /  slide up
| \  slide down
| h  hammer-on
| p  pull-off
| ~  vibrato
| +  harmonic
| x  Mute note
=============================================================================

            
            
Suggest correction
Creating personal tab
Creating personal tab
You can edit any tab online and save it as your Personal.

You can edit, replace or remove any tab part or add personal notes – all changes will be seen only by you.

Personal tabs can be accessed anytime from any device, even offline.
Learn more »
Give kudos to tab author, rate the tab!
1 2 3 4 5
comments
print report bad tab
guest
Wanna post a correction for this tab? Suggest correction