Oops, an error
Loading. Please wait.

Youre Turning Into John Wayne intro tab

version 2
version 2

Intro

Interactive

6,207 views 3 this week
2 commentsread comments
1 2 3 4 5
1 last vote to show rating
add to favorites
×
Save as Personal and add changes to this tab that will be seen only by you. Learn more ›
×
You can save this tab as Personal to edit and correct it or add notes. All changes will be seen only by you. Learn more »
launch autoscroll
font size
0
reset
how to read this tab
guitar tuner
backing track
0:00
0:00
edit
Autoscroll
slow
fast
+/-
esc
set tempo
stop
I love this song, sooooooo good :)

INTRO

Lead:

E -|------------------------------------------------------------------------------------------|
B -|------------------------------------------------------------------------------------------|
G -|--------0-----------0---------0-----------0---------0---------0---------0-------------0---|
D -|----0-2---2-----0-2---0---0-2---2-----2-4---4---0-2---2---2-4---4---4-7---7-----7-10---10-|
A -|------------------------------------------------------------------------------------------|
C -|--4---------4-4---------2---------2-2---------0---------0---------0---------0-0-----------|

VERSE X3

Lead:

E -|------------------------------------------------------------------------------------------|
B -|------------------------------------------------------------------------------------------|
G -|--------0-----------0---------0-----------0---------0---------0---------0-------------0---|
D -|----0-2---2-----0-2---0---0-2---2-----2-4---4---0-2---2---2-4---4---4-7---7-----7-10---10-| 
A -|------------------------------------------------------------------------------------------|
C -|--4---------4-4---------2---------2-2---------0---------0---------0---------0-0-----------|

Rhythm: (Palm Mute)

E -|-----------------------------------------------------------------|
B -|-----------------------------------------------------------------|
G -|-----------------------------------------------------------------|
D -|-----------------------------------------------------------------|
A -|-7-7-7-7-7-7-7-7-7-7-7-7-7-7-7-7-5-5-5-5-5-5-5-5-5-5-5-5-5-5-5-5-|
C -|-4-4-4-4-4-4-4-4-4-4-4-4-4-4-4-4-2-2-2-2-2-2-2-2-2-2-2-2-2-2-2-2-|

E -|--------------------------------|
B -|--------------------------------|
G -|--------------------------------|
D -|--------------------------------|
A -|-3-3-3-3-3-3-3-3-3-3-3-3-3-3-3-3|
C -|-0-0-0-0-0-0-0-0-0-0-0-0-0-0-0-0|

PRE-CHORUS

Rhythm: 

E -|---------------------------------------------------------------------------------|
B -|---------------------------------------------------------------------------------|
G -|---------------------------------------------------------------------------------|
D -|---------------------------------------------------------------------------------|
A -|-7-7-7-7-7-7-7-7-7-7-7-7-7-7-7-7-10-10-10-10-10-10-10-10-10-10-10-10-10-10-10-10-|
C -|-4-4-4-4-4-4-4-4-4-4-4-4-4-4-4-4-7--7--7--7--7--7--7--7--7--7--7--7--7--7--7--7--|

E -|--------------------------------|
B -|--------------------------------|
G -|--------------------------------|
D -|--------------------------------|
A -|-3-3-3-3-3-3-3-3-3-3-3-3-3-3-3-3|
C -|-0-0-0-0-0-0-0-0-0-0-0-0-0-0-0-0|

Email me if you have any suggestions : mygibsonlespaul01@hotmail.co.uk


            
            
Suggest correction
Creating personal tab
Creating personal tab
You can edit any tab online and save it as your Personal.

You can edit, replace or remove any tab part or add personal notes – all changes will be seen only by you.

Personal tabs can be accessed anytime from any device, even offline.
Learn more »
Give kudos to tab author, rate the tab!
1 2 3 4 5
comments
print report bad tab
2 comments total.
0 reply
ross123 148 Feb 10, 2010 02:29 AM

bridge riff is
E -|------------------------------------------------------------------------------------------|
B -|---12-12----------------12-15-15--------------------------------------------------------------------|
G -|---------14-14-12-12-12-----------------------------------|
D -|------------------------------------------------|
A -|------------------------------------------------------------------------------------------|
C -|-------------------------------------------------------|

0 reply
Cpt Doodles 20 Sep 01, 2010 08:47 AM

Cool tab! I have absolutley fallen in love with Twin Atlantic after seeing them at Belsonic!

guest
You may want to rate the tab now too:
select rating
Wanna post a correction for this tab? Suggest correction