Oops, an error
Loading. Please wait.

Janie I Will Only Let You Down tab

16 views 1 this week
no commentswrite comment
1 2 3 4 5
3 more votes to show rating
add to favorites
×
Save as Personal and add changes to this tab that will be seen only by you. Learn more ›
×
You can save this tab as Personal to edit and correct it or add notes. All changes will be seen only by you. Learn more »
launch autoscroll
font size
0
reset
how to read this tab
guitar tuner
edit
Autoscroll
slow
fast
+/-
esc
set tempo
stop
About this tab version
The first and only tab of this song. Was this info helpful? Yes No
Looked around for this but couldn't find any versions
This is my first tab, so let me know if there are errors

Capo first fret
All verses are the same

[Intro]

e|-----0-----0-----0-----0--|-----0-----0-----0-----0--|--------------------------|--------------------------|
B|--------------------------|--------------------------|-----2-----2-----2-----2--|-----2-----2-----2-----2--|
G|--------------------------|--------------------------|--------------------------|--------------------------|
D|--------------------------|--------------------------|--------------------------|--------------------------|
A|--0-----0-----0-----0-----|--0-----0-----0-----0-----|--0-----0-----0-----0-----|--0-----0-----0-----0-----|
E|--------------------------|--------------------------|--------------------------|--------------------------|

[Verse]

All my love notes...

e|-----0-----0-----0-----0--|--------------------------|--------------------------|--------------------------|
B|--------------------------|-----3-----3-----3-----3--|-----2-----2-----2-----2--|-----3-----3-----3-----3--|
G|--------------------------|--------------------------|--------------------------|--------------------------|
D|--------------------------|--0-----0-----0-----0-----|--------------------------|--0-----0-----0-----0-----|
A|--0-----0-----0-----0-----|--------------------------|--------------------------|--------------------------|
E|--------------------------|--------------------------|--2-----2-----2-----2-----|--------------------------|

I'll steal from Norman Blake...

e|-----0-----0-----0-----0--|--------------------------|--------------------------|-----------------0-----0--|
B|--------------------------|-----3-----3-----3-----3--|-----2-----2-----3-----3--|-----2-----2--------------|
G|--------------------------|--------------------------|--------------------------|--------------------------|
D|--------------------------|--0-----0-----0-----0-----|--------------0-----0-----|--------------2-----2-----|
A|--0-----0-----0-----0-----|--------------------------|--------------------------|--0-----0-----------------|
E|--------------------------|--------------------------|--2-----2-----------------|--------------------------|

You know Janie I will only let you down

e|--------------------------|--------------------------|--------------------------|
B|-----2-----2-----3--------|-----2-----------2--------|-----2-----------2--------|
G|--------------------------|-----------2-----------2--|-----------2-----------2--|
D|--------------0-----------|--------------------------|--------------------------|
A|--------------------------|--0-----0-----0-----0-----|--0-----0-----0-----0-----|
E|--2-----2-----------2---4-|--------------------------|--------------------------|

e|-----0-----------0--------|-----0-----------0--------| 
B|--------------------------|--------------------------| 
G|-----------2-----------2--|-----------2-----------2--| 
D|--------------------------|--------------------------| 
A|--0-----0-----0-----0-----|--0-----0-----0-----0-----| 
E|--------------------------|--------------------------| 

[Verse]

How would we even know...

e|-----0-----0-----0-----0--|--------------------------|--------------------------|--------------------------|
B|--------------------------|-----3-----3-----3-----3--|-----2-----2-----2-----2--|-----3-----3-----3-----3--|
G|--------------------------|--------------------------|--------------------------|--------------------------|
D|--------------------------|--0-----0-----0-----0-----|--------------------------|--0-----0-----0-----0-----|
A|--0-----0-----0-----0-----|--------------------------|--------------------------|--------------------------|
E|--------------------------|--------------------------|--2-----2-----2-----2-----|--------------------------|

Some kind of kissing survey... 

e|-----0-----0-----0-----0--|--------------------------|--------------------------|-----------------0-----0--|
B|--------------------------|-----3-----3-----3-----3--|-----2-----2-----3-----3--|-----2-----2--------------|
G|--------------------------|--------------------------|--------------------------|--------------------------|
D|--------------------------|--0-----0-----0-----0-----|--------------0-----0-----|--------------2-----2-----|
A|--0-----0-----0-----0-----|--------------------------|--------------------------|--0-----0-----------------|
E|--------------------------|--------------------------|--2-----2-----------------|--------------------------|
 
You know Janie I will only let you down

e|--------------------------|--------------------------|--------------------------|
B|-----2-----2-----3--------|-----2-----------2--------|-----2-----------2--------|
G|--------------------------|-----------2-----------2--|-----------2-----------2--|
D|--------------0-----------|--------------------------|--------------------------|
A|--------------------------|--0-----0-----0-----0-----|--0-----0-----0-----0-----|
E|--2-----2-----------2---4-|--------------------------|--------------------------|

e|-----0-----------0--------|-----0-----------0--------| 
B|--------------------------|--------------------------| 
G|-----------2-----------2--|-----------2-----------2--| 
D|--------------------------|--------------------------| 
A|--0-----0-----0-----0-----|--0-----0-----0-----0-----| 
E|--------------------------|--------------------------| 

[Verse]

You sit in silence when...

e|-----0-----0-----0-----0--|--------------------------|--------------------------|--------------------------|
B|--------------------------|-----3-----3-----3-----3--|-----2-----2-----2-----2--|-----3-----3-----3-----3--|
G|--------------------------|--------------------------|--------------------------|--------------------------|
D|--------------------------|--0-----0-----0-----0-----|--------------------------|--0-----0-----0-----0-----|
A|--0-----0-----0-----0-----|--------------------------|--------------------------|--------------------------|
E|--------------------------|--------------------------|--2-----2-----2-----2-----|--------------------------|

Quit running circles and just staring that way...

e|-----0-----0-----0-----0--|--------------------------|--------------------------|-----------------0-----0--|
B|--------------------------|-----3-----3-----3-----3--|-----2-----2-----3-----3--|-----2-----2--------------|
G|--------------------------|--------------------------|--------------------------|--------------------------|
D|--------------------------|--0-----0-----0-----0-----|--------------0-----0-----|--------------2-----2-----|
A|--0-----0-----0-----0-----|--------------------------|--------------------------|--0-----0-----------------|
E|--------------------------|--------------------------|--2-----2-----------------|--------------------------|
 
You know Janie this just isn't working out

e|--------------------------|--------------------------|--------------------------|
B|-----2-----2-----3--------|-----2-----------2--------|-----2-----------2--------|
G|--------------------------|-----------2-----------2--|-----------2-----------2--|
D|--------------0-----------|--------------------------|--------------------------|
A|--------------------------|--0-----0-----0-----0-----|--0-----0-----0-----0-----|
E|--2-----2-----------2---4-|--------------------------|--------------------------|

e|-----0-----------0--------|-----0-----------0--------| 
B|--------------------------|--------------------------| 
G|-----------2-----------2--|-----------2-----------2--| 
D|--------------------------|--------------------------| 
A|--0-----0-----0-----0-----|--0-----0-----0-----0-----| 
E|--------------------------|--------------------------| 

[Musical Interlude]
String ensemble with guitar riff (and maybe a banjo). I haven't delved into these yet

[Outro]
You know Janie I will only let you down

e|--------------------------|
B|----2--0-----3--2--0------|
G|---------2-----------2----|
D|--------------------------|
A|--0--------0--------------|
E|--------------------------|

            
            
Suggest correction
Creating personal tab
Creating personal tab
You can edit any tab online and save it as your Personal.

You can edit, replace or remove any tab part or add personal notes – all changes will be seen only by you.

Personal tabs can be accessed anytime from any device, even offline.
Learn more »
Give kudos to tab author, rate the tab!
1 2 3 4 5
comments
print report bad tab
guest
You may want to rate the tab now too:
select rating
Wanna post a correction for this tab? Suggest correction