Oops, an error
Loading. Please wait.

I Found A New Way solo tab

1,492 views 18 this week
1 commentread comment
1 2 3 4 5
x 4
add to favorites
×
Save as Personal and add changes to this tab that will be seen only by you. Learn more ›
×
You can save this tab as Personal to edit and correct it or add notes. All changes will be seen only by you. Learn more »
launch autoscroll
font size
0
reset
how to read this tab
guitar tuner
edit
Autoscroll
slow
fast
+/-
esc
set tempo
stop
Author
Difficulty
-------------------------------------------------------------------------------
                             I FOUND A NEW WAY - Twin Peaks
-------------------------------------------------------------------------------
Tabbed by: ivanlav
If you dig it, rate and comment!

Tuning: Standard

I tabbed these by ear and a bit of video watching so feel free to play around with it 
to get the sound right.

First Solo:

e|--------------------------------------------------------------------------------|
B|--7--------7-----------7----------------------12b14r12-10------12b14r12-10p-----|
G|----------------------------------9-11--9-11--------------11-9------------------|
D|----9--7-9---9--7-9-7-----9--7-9------------------------------------------------|
A|--------------------------------------------------------------------------------|
E|--------------------------------------------------------------------------------|

e|---------------------------------------------------------------------------|
B|---------12b14r12-10p------------------------------------------------------|
G|---11-9---------------11-9--9-11-11----------------------------------------|
D|-------------------------------------9-7-9---------------------------------|
A|---------------------------------------------------------------------------|
E|---------------------------------------------------------------------------|

Ending Solo:


e|---------------------------------------------------------------------------|
B|----------------10----12b14r12-10------------------------------------------|
G|---------7-9/11----9--------------11-9-7-----------------------------------|
D|--9--7-9---------------------------------9---7-----------------------------|
A|---------------------------------------------------------------------------|
E|---------------------------------------------------------------------------|

************************************

| /   slide
| p   pull-off
| h   hammer on
| b   bend
| r   return bend

************************************

            
            
Suggest correction
Creating personal tab
Creating personal tab
You can edit any tab online and save it as your Personal.

You can edit, replace or remove any tab part or add personal notes – all changes will be seen only by you.

Personal tabs can be accessed anytime from any device, even offline.
Learn more »
comments
print report bad tab
1 comment total.
0 reply
geviii666 10 Apr 20, 2016 08:09 AM

I can dig it!

guest
You may want to rate the tab now too:
select rating
Wanna post a correction for this tab? Suggest correction