Oops, an error
Loading. Please wait.

Stand In The Sand tab

76 views 21 this week
no commentswrite comment
1 2 3 4 5
3 more votes to show rating
add to favorites
×
Save as Personal and add changes to this tab that will be seen only by you. Learn more ›
×
You can save this tab as Personal to edit and correct it or add notes. All changes will be seen only by you. Learn more »
launch autoscroll
font size
0
reset
how to read this tab
guitar tuner
edit
Autoscroll
slow
fast
+/-
esc
set tempo
stop
About this tab version
In every live video I’ve seen, Cadien just alternates between 2 versions of an A chord, sometimes 3. The main 2 shapes he uses are the first 2 shown below, and the 3rd is just the standard A open chord, which he sometimes switches to at the very end of the song during Clay’s lead. He seems to switch between a B power chord and one of the A chord shapes very briefly during the “oh yeah-ah-ah--ahhh”s at the very end of the song during Clay’s lead, it’s almost impossible to hear though and makes no real difference in the song. You’re honestly probably better off just playing an A chord during the entire 2 minutes of the song. Final thing to note: Clay’s lead at the end of the recorded version of the song is exactly as I’ve tabbed it, but when he plays it live he does the opposite order of the riffs. All that means is he ends the first, third and fifth riff with the bend, rather than the second and fourth. Enjoy. Was this info helpful? Yes No
Basically this entire song is played with one chord: A
It's voiced primarily 2 different ways; the first 2 shapes shown below.
Another short but sweet Twin Peaks song that's a ton of fun to play.

[Verse & Chorus Rhythm Guitar]
    A      A        A
e|--5------0--------0-------------------------|
B|--5------5--------2-------------------------|
G|--6------6--------2-------------------------|
D|--7------7--------2-------------------------|
A|--7------0--------0-------------------------|
E|--5------x--------x-------------------------|

[Solo]
e|-----------------------------------------------------------------|
B|-----------------------------------------------------------------|
G|-----------------------------14—13-------------------------------|
D|----------------14------------------14/16-----14-----------------|
A|--12-—12—-14/16----14/16--12---------------16----14—16/17--------|
E|-----------------------------------------------------------------|

e|-----------------------------------------------------------------|
B|-----—---15\14---------------------------------------------------|
G|-----16--------14/16---------------------------------------------|
D|--17-----------------16—-19—-14--16-----12\11--------------------|
A|-------------------------------------12-------12--12-------------|
E|-----------------------------------------------------12—-14--12--|

e|-------------------------14--15—-14—-15--14----------------------|
B|------------------14--17---------------------17—-17--------------|
G|---------------14------------------------------------------------|
D|------------14---------------------------------------------------|
A|--12—-14/16------------------------------------------------------|
E|-----------------------------------------------------------------|

e|------14---------------------------------------------------------|
B|--15------17—-15—-14--------14—-14-—14—-14-—14-—14---------------|
G|---------------------16—-14--------------------------------------|
D|-----------------------------------------------------------------|
A|-----------------------------------------------------------------|
E|-----------------------------------------------------------------|

[Outro lead]
Clay’s Part
e|----------------------------------------------------------------|
B|----------------------------------------------------------------|
G|--14--14--------14---------14--14---------14—-------14----------|
D|---------16--14----14--16---------16--14-----14--16-------------|
A|----------------------------------------------------------------|
E|----------------------------------------------------------------|

e|----------------------------------------------------------------|
B|----------------------------------------------------------------|
G|--14--14--------14---------14--14---------14—-16—16b18r16-------|
D|---------16--14----14--16---------16--14------------------------|
A|----------------------------------------------------------------|
E|----------------------------------------------------------------|

e|----------------------------------------------------------------|
B|----------------------------------------------------------------|
G|--14--14--------14---------14--14---------14—-------14----------|
D|---------16--14----14--16---------16--14-----14--16-------------|
A|----------------------------------------------------------------|
E|----------------------------------------------------------------|

e|----------------------------------------------------------------|
B|----------------------------------------------------------------|
G|--14--14--------14---------14--14---------14—-16—16b18r16-------|
D|---------16--14----14--16---------16--14------------------------|
A|----------------------------------------------------------------|
E|----------------------------------------------------------------|

e|----------------------------------------------------------------|
B|----------------------------------------------------------------|
G|--14--14--------14---------14--14---------14—-------14--14—-----|
D|---------16--14----14--16---------16--14-----14--16-------------|
A|----------------------------------------------------------------|
E|----------------------------------------------------------------|


***************************

| b  bend
| r  bend release
| / slide up
| \ slide down

***************************

            
            
Suggest correction
Creating personal tab
Creating personal tab
You can edit any tab online and save it as your Personal.

You can edit, replace or remove any tab part or add personal notes – all changes will be seen only by you.

Personal tabs can be accessed anytime from any device, even offline.
Learn more »
Give kudos to tab author, rate the tab!
1 2 3 4 5
comments
print report bad tab
guest
You may want to rate the tab now too:
select rating
Wanna post a correction for this tab? Suggest correction