Oops, an error
Loading. Please wait.

Under The Pines tab

70 views 21 this week
no commentswrite comment
1 2 3 4 5
2 more votes to show rating
add to favorites
×
Save as Personal and add changes to this tab that will be seen only by you. Learn more ›
×
You can save this tab as Personal to edit and correct it or add notes. All changes will be seen only by you. Learn more »
launch autoscroll
font size
0
reset
how to read this tab
guitar tuner
edit
Autoscroll
slow
fast
+/-
esc
set tempo
stop
About this tab version
This is the entire song with both the rhythm guitar (Clay's chords) and the lead guitar (Cadien's wet riffs). The absolute only thing I'm not entirely sure of is the chorus chords, they're very hard to hear because they're buried under the mix, and there are no live videos of this song yet because it's brand new. But what I laid out works just fine and sounds pretty accurate to me. Another awesome, super fun Twin Peaks song to play. Enjoy. Was this info helpful? Yes No
                                  ********************************
                                    Under The Pines - Twin Peaks
                               ***************************************

I believe Clay plays his G and A chords (in this song and most others) as shown below:

    D      G           A
e|--2------3-----------5--------------------------------------|
B|--3------3-----------5--------------------------------------|
G|--2------4-----------6--------------------------------------|
D|--0------5-----------7--------------------------------------|
A|---------5-----------7--------------------------------------|
E|------------------------------------------------------------|

[Rhythm Guitar]
(Clay)

D  G G  A   A A
D  G G  A   A A

[Verse]
    D      D   A      A        G    D             G G D D D Dsus2
The gutter was filled with fireworks
        D    D      A      A        G    D        G G D D D Dsus2    
And our bodies were filled with wine
        D    D   A      A        G    D           G G D D D Dsus2
And the wine was filled with a secret power
       D      D    A    A        G    D           G G D D D Dsus2           
And it filled your hand with mine
    D      A        G    D
And now we walk together
       D         A         G  D
Down a dark road, unafraid
         D             A             G  D       
With our shadows intertwined forever
     D      G      A
On a moonlit promenade

[Chorus]
                  D       G         A
And now I’m yours!
                   D      G         A
And now you’re mine!
               D       G        A
And now we are
               D       G        A
Under the pines

D  G G  A   A A
D  G G  A   A A

  [Horn part transcribed to guitar]
e|------------------------------------------------------------|
B|-----------------10---------------10------------------------|
G|---------7—9/11-----------7—9/11----------------------------|
D|---7--9--------------7--9-----------------------------------|
A|------------------------------------------------------------|
E|------------------------------------------------------------|

e|------------------------------------------------------------|
B|------------------------------------------------------------|
G|---------7—9/11--9--7—-9-—11-—9—-11-—9—11-—9----------------|
D|---7--9-----------------------------------------------------|
A|------------------------------------------------------------|
E|------------------------------------------------------------|

e|-------------------10--------------------10-----------------|
B|------------10--12---------------10--12---------------------|
G|---7--9/11---------------7—9/11-----------------------------|
D|------------------------------------------------------------|
A|------------------------------------------------------------|
E|------------------------------------------------------------|

e|------------------------------------------------------------|
B|------------------------------------------------------------|
G|---------7—9/11--9--7—-9-—11-—9—-11—9-—11-—9--7-------------|
D|---7--9-----------------------------------------------------|
A|------------------------------------------------------------|
E|------------------------------------------------------------|

[Verse]
    D D    A A     G   D                          G G D D D Dsus2
And now we lie together, ahh lord
     D    D    A   A     G   D                    G G D D D Dsus2   
In a dark world, unafraid
         D      D    A      A   G    D    D       G G D D D Dsus2
With our bodies intertwined forever, yeah
        D D     A   A      G     D                G G D D D Dsus2             
Oh, is all that will remain
         D          A              G   D
And the gutter was filled with fireworks
         D          A               G  D
And our bodies were filled with wine
         D        A              G    D
And the wine was filled with a secret power
        D          G          A
And it filled your body with mine

[Chorus]
                  D         G          A
And now I’m yours!
                    D       G          A
And now you’re mine!
                 D          G          A
And we’ll be fine
                D           G          A
Under the pines
                                                           
Oh yeah!

D  G G  A   A A
D  G G  A   A A

  [Horn part transcribed to guitar]
e|------------------------------------------------------------|
B|-----------------10---------------10------------------------|
G|---------7—9/11------------7—9/11---------------------------|
D|---7--9--------------7--9-----------------------------------|
A|------------------------------------------------------------|
E|------------------------------------------------------------|

e|------------------------------------------------------------|
B|------------------------------------------------------------|
G|---------7—9/11---9--7—-9-—11-—9—-11-—9—11-—9---------------|
D|---7--9-----------------------------------------------------|
A|------------------------------------------------------------|
E|------------------------------------------------------------|

Shalala-la!   Shalalala-leee

e|-------------------10-------------------10------------------|
B|------------10--12---------------10--12---------------------|
G|---7--9/11---------------7—9/11-----------------------------|
D|------------------------------------------------------------|
A|------------------------------------------------------------|
E|------------------------------------------------------------|

e|------------------------------------------------------------|
B|------------------------------------------------------------|
G|---------7—9/11---9--7—-9-—11-—9—-11-—9—11-—----------------|
D|---7--9-------------------------------------9---------------|
A|------------------------------------------------------------|
E|------------------------------------------------------------|

You know I’ve tried, yeah

e|------------------------------------------------------------|
B|-----------------10---------------10------------------------|
G|---------7—9/11------------7—9/11---------------------------|
D|---7--9--------------7--9-----------------------------------|
A|------------------------------------------------------------|
E| -----------------------------------------------------------|

e|------------------------------------------------------------|
B|------------------------------------------------------------|
G|---------7—9/11---9--7—-9-—11-—9—-11-—9—11-—9---------------|
D|---7--9-----------------------------------------------------|
A|------------------------------------------------------------|
E|------------------------------------------------------------|

Oh yeah, you know I got to be free, yeah

e|---------------------10--------------------10---------------|
B|-------------10--12----------------10--12-------------------|
G|---7----9/11---------------7—9/11---------------------------|
D|------------------------------------------------------------|
A|------------------------------------------------------------|
E|------------------------------------------------------------|

e|------------------------------------------------------------|
B|------------------------------------------------------------|
G|---------7—9/11---9--7—-9-—11-—9—-11-—9--7----7—-7----------|
D|---7--9------------------------------------7----------------|
A|------------------------------------------------------------|
E| -----------------------------------------------------------|

D   D

[End of Song]




[Lead Guitar]
(Cadien)

[Verse]

Alright…
e|----------------------------------------------------------------------|
B|----------------------------------------------------------------------|
G|------------------------------7---9—-11--11-—9--7---------------------|
D|------------------------------7-----------------7---------------------|
A|------5--7—-7/9--7—-5—-7-—7/9-----------------------------------------|
E|--5h7-----------------------------------------------------------------|

The gutter was filled with fireworks, yeah…             

And our bodies were filled with wine

e|-10-------------------------------------------------------------------|
B|----12\10-------------------------------------------------------------|
G|-----------11\9--7—-9/11-----------7—-—-------------------------------|
D|------------9\7--7—-7/9------------7-—9p7—-9p7------------------------|
A|-----------------------------------------------9\7--5—7/9—7—7/9--5----|
E|----------------------------------------------------------------------|

And the wine was filled with a secret power

e|----------------------------------------------------------------------|
B|---------10--10--------10--10--------10—-10\8—-10\8--7—-8/10—-7-------|
G|-7—9/11--11--11—-9/11--11--11—-9/11--11—-11\9—-11\9--7--9/11—-7-------|
D|----------------------------------------------------------------------|
A|----------------------------------------------------------------------|
E|----------------------------------------------------------------------|

And it filled your hand with mine

e|----------------------------------------------------------------------|
B|----------------------------------------------------------------------|
G|---------7----------7-------------------------------------------------|
D|--9p7----7---9p7----7-------------------------------------------------|
A|------9----------9------9\7-—5-—7/9-—7--5-----------------------------|
E|----------------------------------------------------------------------|

And now we walk together, down a dark road… unafraid
e|----------------------------------------------------------------------|
B|----------------------------------------------------------------------|
G|-----11----9—--12—-11-—9--11--------11--9-----------------------------|
D|--12----12-------------------12------------9--11—-9p7—-9p7—-5--4------|
A|-----------------------------------------------------------------5----|
E|----------------------------------------------------------------------|

With our shadows intertwined forever, on a moonlit promenade…

e|------------------------------------------------------------5---------|
B|-------------------------------------------------7--------------------|
G|-----11----9—--12—-11-—9--11---------11--9-------7-----4/7------------|
D|--12----12-------------------12-------------7h9-----------------------|
A|----------------------------------------------------------------------|
E|----------------------------------------------------------------------|

[Chorus]

And now I’m yours!
e|----------------------------------------------------------------------|
B|----------------------------------------------------------------------|
G|----------------------------------------------------------------------|
D|----------------------------------------------7-------7—9—7----7------|
A|--7/9—-7—-5h7—-7/9-—7--5------------5--5—7/9-----------------9--------|
E|-------------------------3--3--5/7------------------------------------|

And now you’re mine!

e|----------------------------------------------------------------------|
B|----------------------------------------------------------------------|
G|----------------------------------------------------------------------|
D|----------------------------------------------7------7—9p7----7—-9----|
A|--7/9—-7—-5h7—-7/9-—7--5------------5--5—7/9----------------9---------|
E|-------------------------3--3--5/7------------------------------------|

And now we are

e|----------------------------------------------------------------------|
B|----------------------------------------------------------------------|
G|---------------------------------------------------------------7------|
D|----------------------------------------------7-------7—9p7--9--------|
A|--7/9—-7—-5h7—-7/9-—7--5------------5--5—7/9--------------------------|
E|-------------------------3--3--5/7------------------------------------|

Under the pines

e|----------------------------------------------------------------------|
B|--10--8---------10\8--7----12-------7----10--8------10------10--------|
G|--11--9----7h9—-11\9--7----12-------7----11--9---------9-------9------|
D|--------------------------------7/9-------------7/9------11------11---|
A|----------------------------------------------------------------------|
E|----------------------------------------------------------------------|

e|---------------------------------------------------------------------|
B|--10—-10/12—-10/12---10--7---10--12------5h7--5--7----5--------------|
G|--7---9/11—--9/11----9---7---9---11------7----7--7----7--------------|
D|---------------------------------------------------------------------|
A|---------------------------------------------------------------------|
E|---------------------------------------------------------------------|

[Verse]

And now we lie together, ahhh lord…

e|--10--------------------10---------9------------10-------------------|
B|-----12\10-—12\10--------------------10------------------------------|
G|-------------------9/11-----11\9----------9/11-----------------------|
D|---------------------------------------------------------------------|
A|---------------------------------------------------------------------|
E|---------------------------------------------------------------------|

In a dark world, unafraid

e|---------------------------------------------------------------------|
B|--10/12--10------------------------10------8----7--------------------|
G|-- 9/11------11\9--7--9----7—-9/11----11/9---9--7--------------------|
D|---------------------------------------------------------------------|
A|---------------------------------------------------------------------|
E|---------------------------------------------------------------------|

With our bodies intertwined forever, yeah

e|---------------------------------------------------------------------|
B|-------7--8--7--5-----------7----------------------------------------|
G|--5/7--7--7--7--7--7—-6—-6--7----------------------------------------| 
D|---------------------------------------------------------------------|
A|---------------------------------------------------------------------|
E|---------------------------------------------------------------------|

Is all that will remain...

e|---------------------------------------------------------------------|
B|-----------------10--------------------------------------------------|
G|------7--9—-9/11----11\9--7------------------------------------------| 
D|--7h9------------------------9b11—-9--9b11—9--7----------------------|
A|---------------------------------------------------------------------|
E|---------------------------------------------------------------------|

And the gutter was filled with fireworks

e|---------------------------------------------------------------------|
B|-----7------5------8--7--5--7----------------------------------------|
G|-------7------6---------------7--------------------------------------| 
D|--7------7------7---------------7------------------------------------|
A|---------------------------------------------------------------------|
E|---------------------------------------------------------------------|

And our bodies were filled with wine

e|---------------------------------------------------------------------|
B|-----7--5----5-------------------------------------------------------|
G|----------7----7-------------------7---------------------------------| 
D|--7--------------7------9—-7—-5--4-----------------------------------|
A|---------------------------------------------------------------------|
E|---------------------------------------------------------------------|

And the wine was filled with a secret power

e|---------------------------------------------------------------------|
B|-----7------5------8--7--5--7----------------------------------------|
G|-------7------6---------------7--------------------------------------| 
D|--7------7------7---------------7------------------------------------|
A|---------------------------------------------------------------------|
E|---------------------------------------------------------------------|


And it filled your body with mine

e|---------------------------------------------------------------------|
B|-----7-----8--7-------10---10---10---10------------------------------|
G|-------7---------7/9-----9----9----9---------------------------------| 
D|--7------------------------------------------------------------------|
A|---------------------------------------------------------------------|
E|---------------------------------------------------------------------|

[Chorus]

And now I’m yours!
e|---------------------------------------------------------------------|
B|---------------------------------------------------------------------|
G|------------------------------------------------------------7--------|
D|----------------------------------------------7-------7-—9—----------|
A|--7/9—-7—-5h7—-7/9-—7--5------------5--5—7/9-------------------------|
E|-------------------------3--3--5/7-----------------------------------|

And now you’re mine!

e|----------------------------------------------------------------------|
B|---------------------------8------7------7-----7----------------------|
G|--9/11--9----7h9—-9/11--7--7------7------7--7--7--9-------------------|
D|--7/9---7---------7/9---7-----7h9----7------7-----7-------------------|
A|----------------------------------------------------------------------|
E|----------------------------------------------------------------------|

And we’ll be fine

e|----------------------------------------------------------------------|
B|----------------------------------------------------------------------|
G|------------------------------------------------------------7---------|
D|----------------------------------------------7-------7-—9—-----------|
A|--7/9—-7—-5h7—-7/9-—7--5------------5--5—7/9--------------------------|
E|-------------------------3--3--5/7------------------------------------|

Under the pines

e|----------------------------------------------------------------------|
B|---------------------------8------7------7-----7----------------------|
G|--9/11--9----7h9—-9/11--7--7------7------7--9--7--9-------------------|
D|--7/9---7---------7/9---7-----7h9----7------7-----7-------------------|
A|----------------------------------------------------------------------|
E|----------------------------------------------------------------------|

Ah yeah!

e|----------------------------------------------------------------------|
B|-----7--7-----------7-----7-------------------------------------------|
G|--7--7--7--9--------7--9--7--9--9--9----------------------------------|
D|--7--------7-----------7-----7--7--7----------------------------------|
A|----------------------------------------------------------------------|
E|----------------------------------------------------------------------|

[Horn part transcribed to guitar]
e|------------------------------------------------------------|
B|-----------------10---------------10------------------------|
G|---------7—9/11-----------7—9/11----------------------------|
D|---7--9--------------7--9-----------------------------------|
A|------------------------------------------------------------|
E|------------------------------------------------------------|

e|------------------------------------------------------------|
B|------------------------------------------------------------|
G|---------7—9/11--9--7—-9-—11-—9—-11-—9—11-—9----------------|
D|---7--9-----------------------------------------------------|
A|------------------------------------------------------------|
E|------------------------------------------------------------|

e|-------------------10--------------------10-----------------|
B|------------10--12---------------10--12---------------------|
G|---7--9/11---------------7—9/11-----------------------------|
D|------------------------------------------------------------|
A|------------------------------------------------------------|
E|------------------------------------------------------------|

e|------------------------------------------------------------|
B|------------------------------------------------------------|
G|---------7—9/11--9--7—-9-—11-—9—-11—9-—11-—9--7-------------|
D|---7--9-----------------------------------------------------|
A|------------------------------------------------------------|
E|------------------------------------------------------------|


*************************

|  b   bend
|  h   hammer-on
|  p   pull-off
|  /   slide up 
|  \   slide down

*************************
Suggest correction
Creating personal tab
Creating personal tab
You can edit any tab online and save it as your Personal.

You can edit, replace or remove any tab part or add personal notes – all changes will be seen only by you.

Personal tabs can be accessed anytime from any device, even offline.
Learn more »
Give kudos to tab author, rate the tab!
1 2 3 4 5
comments
print report bad tab
guest
You may want to rate the tab now too:
select rating
Wanna post a correction for this tab? Suggest correction