Oops, an error
Loading. Please wait.

Forget tab

298 views 1 this week
no commentswrite comment
1 2 3 4 5
3 more votes to show rating
add to favorites
×
Save as Personal and add changes to this tab that will be seen only by you. Learn more ›
×
You can save this tab as Personal to edit and correct it or add notes. All changes will be seen only by you. Learn more »
launch autoscroll
font size
0
reset
how to read this tab
guitar tuner
edit
Autoscroll
slow
fast
+/-
esc
set tempo
stop
Author
Difficulty
-------------------------------------------------------------------------------
                            FORGET - Twin Shadow
-------------------------------------------------------------------------------
Tabbed by: chicagoballs123
E-mail: chicagoballsgaming@gmail.com

Tuning: EADGBe

Intro & Part of Verse (Synth Part for Guitar) 
e|------------------------------------------------------------------------------------|
B|---3-3-------------------3-3--------------------------------------------------------|
G|--------2-2---5-5-------------2--2---5--0--2----------------------------------------|
D|----------------------------------------------3----3s5--7---77----------------------|
A|-----------------------------------------------------------------3-----5------------|
E|------------------------------------------------------------------------------------|


Verse
        A#5
When winter sets in   
                      C5   F5
it has a way of crystallizing the bad times
The fevers the heartaches
        A#5
This is all of it 
this is everyone
                  C5  F5      D5 
I'm wanting to forget 

Chorus
They'll give us something       
they'll give us so much to forget  
Or enough rope to deal with it
                                    (DO INTRO RIFF TWICE FOR THE CHORUS)
They'll give us something
they'll give us so much to forget
Or enough rope to deal with it

SOLO
e|------------------------------------------------------------------------------------|
B|------------------------------------------------------------------------------------|
G|------------------------------------------------------12----14--14s17----14h17p14-- |
D|----------------------5-----7----5---5s7---7s10---12--------------------------------|
A|-------------5----7-----------------------------------------------------------------|
E|---5-----8--------------------------------------------------------------------------|

e|------------------------------------------------------------------------------------|
B|------------------------------------------------------------------------------------|
G|--12--------------------------------------------------------------------------------|
D|---------15-15-15-14-15-14--12--10--10s12-10--7--7s10--10s12b14-14br12--10--7--10---|
A|------------------------------------------------------------------------------------|
E|------------------------------------------------------------------------------------|

e|-----------------------------------------------------10-----------------------------|
B|------------------------------------------------------------------------------------|
G|--------------------12--12--14--14--14-14s7--7--7----7------------------------------|
D|-12---14-14-15-15-------------------------------------------------------------------|
A|------------------------------------------------------------------------------------|
E|------------------------------------------------------------------------------------|

A#5
With pencil and light
C5               F5
You heard your love again
you wrestled your nightmares
the sweat in your bedsheets
A#5
This is all of it 
this is everything
                  C5  F5 
I'm wanting to forget 

OUTRO THEN ENDING 

************************************
| /   slide up
| \   slide down
| h   hammer-on
| p   pull-off
| ~   vibrato
| +   harmonic
| x   Mute note
| b   Bend
| pb  Pre-bend
| br  Bend release
| pbr Pre-bend release
| brb Bend release bend

************************************
Suggest correction
Creating personal tab
Creating personal tab
You can edit any tab online and save it as your Personal.

You can edit, replace or remove any tab part or add personal notes – all changes will be seen only by you.

Personal tabs can be accessed anytime from any device, even offline.
Learn more »
Give kudos to tab author, rate the tab!
1 2 3 4 5
comments
print report bad tab
guest
You may want to rate the tab now too:
select rating
Wanna post a correction for this tab? Suggest correction