Oops, an error
Loading. Please wait.

Brad Tab

176 views 1 this week
no commentswrite comment
1 2 3 4 5
3 more votes to show rating
add to favorites
launch autoscroll
font size
0
reset
how to read this tab
guitar tuner
Autoscroll
slow
fast
+/-
esc
set tempo
stop
Help us to improve Ultimate-Guitar.com Take our survey!
×
'brad' - twisted halo

tabbed by : Joshua Flores

======================================================
legend:
^ - sustain
~ - repeat as many times as necessary
b - bend
======================================================

Intro:

Guitar 1:
------------------------------|
--0h3-3-3-3~~~~~h5-5-5-5~~~~--|
------------------------------|	[repeat as necessary]
------------------------------|
------------------------------|
------------------------------|

Guitar 2:
--------------------------------------------------------------------------|
--------------------------------------------------------------------------|
--------7^--------5^--------7^-------5^-(hold)----------------------------|
------5---------5---------5--------5--------------------------------------|
----7---------7---------7--------7----------------------------------------|
--0---------0---------0--------0------------------------------------------|

Guitar 3: [Play the power chords] E - C


Verse1:
** guitar 1: do intro c.p. **
** guitar 2: walang guitar 2 **
** guitar 3: papasok lang pagdating sa chord na C **

Brad, patawad
'di ko inakalang
hahantong pala sa ganito
ba't ba kasi hindi mo nakayanan
	      C	(hold)
alam mo namang
lubha kang mahihirapan

adlib: do intro riffs, for the 3 guitars

verse2: like verse1
brad, 'ti ka mo
di ka iniwan ng basta
di gaya ng iba
magulang mo'y parating na
	    C
upang ika'y ialis na sa kanila


Chorus:
 D	     C
ginawa na namin ang lahat para sa iyo
ginawa nga namin ang lahat sa iyo
ginawa nga namin ang lahat para sa iyo
ginawa nga namin ang lahat sa iyo

adlib: do intro riffs, for the 3 guitars

verse3: like verse1
brad, ikakatuwa mo
humingi na ng tawad sa mga
mag-anak mong umiiyak
Sayang ka di na makakasama
	       C
sa mga pagpupugay na dadalin ng kapatiran

[Repeat Chorus]


Adlib:

Guitar 2:
------------------------------------------------------|
------------------------------------------------------|
--------7^--------5^--------7^-------5^-(hold)--------|
------5---------5---------5--------5------------------|
----7---------7---------7--------7--------------------|
--0---------0---------0--------0----------------------|

         Guitar 1: [lead 1]
	----------------------------------------------|
	----------8-(hold)--10p8----------------------|
	------7h9----------------9p7h9(hold)-7(hold)--|
	--7h9-----------------------------------------|
	----------------------------------------------|
	----------------------------------------------|

--15p12-----------------------------------------------|
--------15p12-----------------------------------------|
--------------14--12-12---------------12--12h14~~~p12-|
------------------------------12h1412-----------------|
------------------------12h14-------------------------|
------------------------------------------------------|

------------------------------------------------------|
------------------------------------------------------|
-14p12------------------------------------------------|
--------14p12-14p12-----------------------------------|
--------------------14p12-14p12--12p10-12p10-9h10-----|
------------------------------------------------------|


after doing the riffs above, guitar 1 plays:
--------------------------------------------------------------------------|
--------------------------------------13131312-13131312-131312------------|
---14-14-14-14-12^-(hold)-------------------------------------------------|
--------------------------------------------------------------------------|
--------------------------------------------------------------------------|
--------------------------------------------------------------------------|

guitar2: [play this with guitar1]
------------------------------------|
---5p4----------5p4---------5p4-----|
-------4p3h4p3------4p3h4p3-----4p3-|
------------------------------------|
------------------------------------|
------------------------------------|

				    guitar 3:
				    [the riff is basically a variation of B and C]
				    [just try to figure it out]
                    ------------------------|
                    ------------------------|
                    ------------------------|
                    --454554----------------|
                        --232332------------|
                    ------------------------|

then guitar 3 plays the ff: [power chords]
E - F# - G - C
E - F# - G - C#


then play this:

guitar 3: [power chords]
     E      F#      G    C           E	     F#    G   C#

guitar 1: [play with guitar 3]
--------------------------------------------------------------------------|
--------------------------------------------------------------------------|
-----44~~~~-666~~~~-7~~--1212~~~~-----44~~~~-6~~~~-7~~-1313~~~~13b--------|
--------------------------------------------------------------------------|
--------------------------------------------------------------------------|
--------------------------------------------------------------------------|


brad, makakasiguro
at hanggang sa huling
hibla ng hininga mo


**note: may ilang part na may tumtugtog ng harmonics.. kayo nang bahala dun!**

=====
-end-
=====
Suggest correction
Give kudos to tab author, rate the tab!
1 2 3 4 5
comments
print report bad tab
guest
You may want to rate the tab now too:
select rating
Wanna post a correction for this tab? Suggest correction