Oops, an error
Loading. Please wait.

Have Yourself A Merry Little Christmas Tab

49 views 24 this week
no commentswrite comment
1 2 3 4 5
3 more votes to show rating
add to favorites
launch autoscroll
font size
0
reset
how to read this tab
guitar tuner
Autoscroll
slow
fast
+/-
esc
set tempo
stop
Help us to improve Ultimate-Guitar.com Take our survey!
×
Author
Difficulty
Tuning
novice
D# G# C# F# A# D#
About this tab version
This just includes the electric guitar part. Not the acoustic guitar introduction. Was this info helpful? Yes No
[Intro] x2
e|---------------------------------------------------------------------------|
B|---------------------------------------------------------------------------|
G|---------------------------------------------------------------------------|
D|---------------------------------------------------------------------------|
A|---5---------5-5-----------------------------------------------------------|
E|---3---------3-3-----------------------------------------------------------|

[Verse 1] x2 
e|----------------------------------------------------------------------------|
B|----------------------------------------------------------------------------|
G|----------------------------------------------------------------------------|
D|-----------------7---------------------7----------------------7---5---4---7-|
A|--5-------7------5------5---2---7------5------5-----2---7-----5---3---2---5-|
E|--3-------5-------------3---0----5------------3-----0---5-------------------|

(Leading into the chorus)
e|---------------------------------------------------------------------------|
B|---------------------------------------------------------------------------|
G|---------------------------------------------------------------------------|
D|----5------4---------------------------------------------------------------|
A|----3------2---------------------------------------------------------------|
E|---------------------------------------------------------------------------|

[Chorus]
e|---------------------------------------------------------------------------|
B|---------------------------------------------------------------------------|
G|---------------------------------------------------------------------------|
D|--5------4--------7-----------------------------------7-------7------------|
A|--3------2----7---5-------5----------2----5-----7-----5---5---5---3--2--0--|
E|--------------5-----------3----------0----3-----5---------3----------------|

[Bridge]
e|---------------------------------------------------------------------------|
B|---------------------------------------------------------------------------|
G|---------------------------------------------------------------------------|
D|----5-------------7--------------------------------------------------------|
A|----3------7------5-----5--------------------------------------------------|
E|-----------5------------3--------------------------------------------------|

[Verse 2] x2
e|----------------------------------------------------------------------------|
B|----------------------------------------------------------------------------|
G|----------------------------------------------------------------------------|
D|-----------------7---------------------7----------------------7---5---4-----|
A|--5-------7------5------5---2---7------5------5-----2---7-----5---3---2-----|
E|--3-------5-------------3---0----5------------3-----0---5-------------------|

[Chorus]
e|---------------------------------------------------------------------------|
B|---------------------------------------------------------------------------|
G|---------------------------------------------------------------------------|
D|--5------4--------7-----------------------------------7-------7------------|
A|--3------2----7---5-------5----------2----5-----7-----5---5---5---3--2--0--|
E|--------------5-----------3----------0----3-----5---------3----------------|

[Verse 3] x2
e|----------------------------------------------------------------------------|
B|----------------------------------------------------------------------------|
G|----------------------------------------------------------------------------|
D|-----------------7---------------------7----------------------7---5---4-----|
A|--5-------7------5------5---2---7------5------5-----2---7-----5---3---2-----|
E|--3-------5-------------3---0----5------------3-----0---5-------------------|

[Outro]
e|---------------------------------------------------------------------------|
B|---------------------------------------------------------------------------|
G|---------------------------------------------------------------------------|
D|---------------------------------------------------------------------------|
A|-------5---5---5------5----5-----------------------------------------------|
E|-------3---3---3------3----3-----------------------------------------------|
        (ho  ho  ho   let's  go)
Suggest correction
Give kudos to tab author, rate the tab!
1 2 3 4 5
comments
print report bad tab
guest
You may want to rate the tab now too:
select rating
Wanna post a correction for this tab? Suggest correction