Oops, an error
Loading. Please wait.
We have an official I Wanna Rock tab made by UG professional guitarists. Check out the tab »
×
184,522 views 222 this week
13 commentsread comments
1 2 3 4 5
x 51
add to favorites
×
Save as Personal and add changes to this tab that will be seen only by you. Learn more ›
×
You can save this tab as Personal to edit and correct it or add notes. All changes will be seen only by you. Learn more »
launch autoscroll
font size
0
reset
how to read this tab
guitar tuner
backing track
0:00
0:00
edit
Autoscroll
slow
fast
+/-
esc
set tempo
stop
Author
----------------------------------------------------------------------------
                             I WANNA ROCK
                            Twisted Sister
----------------------------------------------------------------------------

Tabbed by: Cortney C.
Email: NCGERLS@aol.com

Standard Tuning

I wanna rock!

e|-------------------------------------------------------------------------------|
B|-------------------------------------------------------------------------------|
G|-------------------------------------------------------------------9-5----(x2)-|
D|--7---5-5-5-5--1-2-1-2-1-2-1-2--2-5-7-7--5-5-5-5--1-2-1-2-1-2-1-2--9-5-7-------|
A|--7---5-5-5-5--1-2-1-2-1-2-1-2--2-3-7-7--5-5-5-5--1-2-1-2-1-2-1-2--7-3-5-------|
E|--5---3-3-3-3--1-0-1-0-1-0-1-0--0-3-5-5--3-3-3-3--1-0-1-0-1-0-1-0------5-------|

(Guitar silent) Turn it down you say, well all I've gotta say is time and time again I say-

e|------------------------------|
B|------------------------------|
G|------------------7-7---------|
D|------7----5-5----7-7-----5-7-|
A|------7----5-5----5-5-----5-7-|
E|------5----3-3------------3-5-|
No! (no!) no-no no-no no

(Guitar silent) Tell me not to play, well all I've gotta say when you tell me not to play is-

e|--------------------------|
B|--------------------------|
G|------------------7-7-----|
D|------7----5-5----7-7-----|
A|------7----5-5----5-5-----|
E|------5----3-3------------|

No! (no!) no-no no-no no

e|----------------------------------------|
B|----------------------------------------|
G|----7----------7-7-7-7----------5-5---7-|
D|--5-7--5-5-5-5-7-7-7-7-5-5-5-5--5-5-5-7-|
A|--5-5--5-5-5-5-5-5-5-5-5-5-5-5--3-3-5-5-|
E|--3----3-3-3-3---------3-3-3-3------3---|
      
When its...

I wanna rock!

e|-------------------------------------------------------------------------------|
B|-------------------------------------------------------------------------------|
G|-------------------------------------------------------------------9-5----(x2)-|
D|--7---5-5-5-5--1-2-1-2-1-2-1-2--2-5-7-7--5-5-5-5--1-2-1-2-1-2-1-2--9-5-7-------|
A|--7---5-5-5-5--1-2-1-2-1-2-1-2--2-3-7-7--5-5-5-5--1-2-1-2-1-2-1-2--7-3-5-------|
E|--5---3-3-3-3--1-0-1-0-1-0-1-0--0-3-5-5--3-3-3-3--1-0-1-0-1-0-1-0------5-------|

(Guitar silent) Turn the power up, I've waited for so long so I can hear my favorite song so lets-

e|------------------------------|
B|------------------------------|
G|------------------7-7---------|
D|------7----5-5----7-7-----5-7-|
A|------7----5-5----5-5-----5-7-|
E|------5----3-3------------3-5-|
Go! (go!) go-go go-go go

(Guitar silent) Tell me not to play, well all I've gotta say when you tell me not to play is-

e|--------------------------|
B|--------------------------|
G|------------------7-7-----|
D|------7----5-5----7-7-----|
A|------7----5-5----5-5-----|
E|------5----3-3------------|
Go! (go!) go-go go-go go

e|----------------------------------------|
B|----------------------------------------|
G|----7----------7-7-7-7----------5-5---7-|
D|--5-7--5-5-5-5-7-7-7-7-5-5-5-5--5-5-5-7-|
A|--5-5--5-5-5-5-5-5-5-5-5-5-5-5--3-3-5-5-|
E|--3----3-3-3-3---------3-3-3-3------3---|
      
When its...

I wanna rock!

e|-------------------------------------------------------------------------------|
B|-------------------------------------------------------------------------------|
G|-------------------------------------------------------------------9-5----(x2)-|
D|--7---5-5-5-5--1-2-1-2-1-2-1-2--2-5-7-7--5-5-5-5--1-2-1-2-1-2-1-2--9-5-7-------|
A|--7---5-5-5-5--1-2-1-2-1-2-1-2--2-3-7-7--5-5-5-5--1-2-1-2-1-2-1-2--7-3-5-------|
E|--5---3-3-3-3--1-0-1-0-1-0-1-0--0-3-5-5--3-3-3-3--1-0-1-0-1-0-1-0------5-------|

e|--------------------------------------------------|
B|--------------------------------------------------|
G|--------------------------------------------(x2)--|
D|--7-----7-----7---2-5--7-----7-----7----9-5-------|
A|--5-----5-----5---2-3--5-----5-----5----9-5-------|
E|--5-----5-----5---0-3--5-----5-----5----7-3-------|
Rock! Rock! Rock!    Rock! Rock! Rock!


[Solo]

e|---------5-----------------------------10^10^-12-10-8--10-8--10-8----8-10-12-10-12-10-12-|
B|-8^8^8^8^-8-5--5------------8-10-8---8---------------10----10-----10---------------------|
G|-------------7^-7-5-7-5~--7^-------9-----------------------------------------------------|
D|-------------------7---------------------------------------------------------------------|
A|-----------------------------------------------------------------------------------------|
E|-----------------------------------------------------------------------------------------|

e|-15^15^17-15-12-----15-------------------------------------|
B|---------------15-17--15-13-15-15-13--13---17--17---17-----|
G|------------------------------------14--14---20^--20^--20--|
D|-----------------------------------------------------------|
A|-----------------------------------------------------------|
E|-----------------------------------------------------------|

e|--------------------------------|
B|17-20-17--17-20--17-20^-15^-15--|
G|--------19-----19^--------------|
D|--------------------------------|
A|--------------------------------|
E|--------------------------------|


[Outro]

e|------------------------------------------|
B|-13----------------------------20---------|
G|---14-----7-5-7-5-7-7^------17---19^--19^-|
D|----------------------19--19--------------|
A|------------------------------------------|
E|------------------------------------------|

************************************

| ~  Vibrato

************************************

            
            
Suggest correction
Creating personal tab
Creating personal tab
You can edit any tab online and save it as your Personal.

You can edit, replace or remove any tab part or add personal notes – all changes will be seen only by you.

Personal tabs can be accessed anytime from any device, even offline.
Learn more »
comments
print report bad tab
13 comments total. Showing first comments.
+3 reply
AC/DC10 30 Sep 08, 2005 08:00 PM

could also be (for the intro)

-------------------------------------------------------|
-------------------------------------------------------|
------------7777-----------------7777------9-5-----X2--|
--7---5555--7777--2-5-7-7--5555--7777------9-5-7-------|
--7---5555--5555--2-3-7-7--5555--5555------7-3-5-------|
--5---3333--------0-3-5-5--3333------------0-0-5-------|

i dunno about the extra 0's but w/e

0 reply
AC/DC10 30 Sep 08, 2005 08:00 PM

also should be

-------------------------|
-------------------------|
---7------7777-----55-7--|
--57--555577775555-55557-|
--55--555555555555-33555-|
--3---3333----3333---33--|
When its...

+1 reply
AC/DC10 30 Sep 08, 2005 08:00 PM

oops meant it to be

-------------------------|
-------------------------|
---7------7777-----55--7-|
--57--555577775555-55557-|
--55--555555555555-33555-|
--3---3333----3333---33--|
When its...

guest
You may want to rate the tab now too:
select rating
Wanna post a correction for this tab? Suggest correction