Oops, an error
Loading. Please wait.
We have an official Were Not Gonna Take It tab made by UG professional guitarists. Check out the tab »
×
13,357 views 6 this week
2 commentsread comments
1 2 3 4 5
x 8
add to favorites
×
Save as Personal and add changes to this tab that will be seen only by you. Learn more ›
×
You can save this tab as Personal to edit and correct it or add notes. All changes will be seen only by you. Learn more »
launch autoscroll
font size
0
reset
how to read this tab
guitar tuner
backing track
0:00
0:00
edit
Autoscroll
slow
fast
+/-
esc
set tempo
stop
Author
This is the solo.  It's pretty simple to play.  Have Fun!


----------------
----------------
-9---9-11---11\-
---9------9-----
----------------
----------------

-----------------------------
-9----9-9h10-9h10-9h10-9-----
---11--------------------11--
-----------------------------
-----------------------------
-----------------------------

---------------------------------
-9-9---------9-----------12-12vb-
-----11-9-11---9-9-9-9vb---------
---------------------------------
---------------------------------
---------------------------------

(---------------
(---------------
(-9---9-11---11-
(---9------9----
(---------------
(---------------

(----------------
(-9------9-10----
(---9-11------9\-
(----------------
(----------------
(----------------

(---------------------
(-9-9---------9-------
(-----10-9-10---9-9-9-
(---------------------
(---------------------
(---------------------


h-hammer on
\-slide down
vb-vibrato
Suggest correction
Creating personal tab
Creating personal tab
You can edit any tab online and save it as your Personal.

You can edit, replace or remove any tab part or add personal notes – all changes will be seen only by you.

Personal tabs can be accessed anytime from any device, even offline.
Learn more »
comments
print report bad tab
2 comments total.
0 reply
jhalfacre_21 15 Sep 10, 2006 06:02 PM

(---------------------
(-9-9---------9-------
(-----(10-9-10)---9-9-9-
(---------------------
(---------------------
(---------------------


Great tab....but the part I put in parentheses above...I think should go like 11-9-11....same string

0 reply
atlasguitar 20 Apr 18, 2009 09:36 AM

Wrong, it is close but wrong.

guest
You may want to rate the tab now too:
select rating
Wanna post a correction for this tab? Suggest correction