Oops, an error
Loading. Please wait.

Were Not Gonna Take It Tab

version 3
version 3

Whole song

Interactive

22,639 views 36 this week
1 commentread comment
1 2 3 4 5
x 4
add to favorites
launch autoscroll
font size
0
reset
how to read this tab
guitar tuner
backing track
0:00
0:00
Autoscroll
slow
fast
+/-
esc
set tempo
stop
Help us to improve Ultimate-Guitar.com Take our survey!
×
Hey I was lookin through teh song inventory and when i looked for we're not gonna take
it" i was surprised to see that no one had the whole song done out right. there were bits
and peices everywhere. so i have done my best to construct this song with some of my own
input. im sorry i didnt take the trouble to put the lyrics above the lines so u can sing
with it. but its a really easy song so im sure u can figure it out. im not saying there
are no mistakes as it is my first tab. you should be able to play this right through the
recording ive got the whole thing tabbed out note for note.

any corrections id love to talk about em so u can email me at ben_jamin401@hotmail.com

Hope this tab works well for yah!!!!!!!

(Drums Alone)
We're not gonna take it, no we ain't gonna take it, we're not gonna take it
anymooooooooooooooooooooore

Intro
-----------------------------------------------------------------------------|
-----------------------------------------------------------------------------|
-----------------------------------------------------------------------------|
-14---14-13--13-11--11-9-/-14--14-13--13-11--11-9----------------------------|
-14---14-13--13-11--11-9-/-14--14-13--13-11--11-9----------------------------|
-12---12-11--11-9---9--7-/-12--12—11--11-9---9--7----------------------------|

Verse 1
------------------------------------------------------------------------------|
------------------------------------------------------------------------------|
------------------------------------------------------------------------------|
2222-2222-9999-9999-2222-2222-7777-7777-2222-2222-9999-9999-2222-2222-99-9999-|
2222-2222-9999-9999-2222-2222-7777-7777-2222-2222-9999-9999-2222-2222-99-9999-|
0000-0000-7777-7777-0000-0000-5555-5555-0000-0000-7777-7777-0000-0000-77-7777-|

Verse 2
------------------------------------------------------------------------------|
------------------------------------------------------------------------------|
------------------------------------------------------------------------------|
2222-2222-9999-9999-2222-2222-7777-7777-2222-2222-9999-9999-2222-2222-99-9999-|
2222-2222-9999-9999-2222-2222-7777-7777-2222-2222-9999-9999-2222-2222-99-9999-|
0000-0000-7777-7777-0000-0000-5555-5555-0000-0000-7777-7777-0000-0000-77-7777-|

Chorus 2
-----------------------------------------------------------------------------|
-----------------------------------------------------------------------------|
-----------------------------------------------------------------------------|
-14-14----------------------14-14--------------------14-14-------------------|
-14-14--9-9-11-9--9-9-11-9--14-14--7-7-9-7--7-7-9-7--14-14-------------------|
-12-12--7-7-7--7--7-7-7--7--12-12--5-5-5-5--5-5-5-5--12-12-------------------|

-----------------------------------------------------------------------------|
-----------------------------------------------------------------------------|
-----------------------------------------------------------------------------|
----------------------14---14-13--13-11--11-9--------------------------------|
-9-9-11-9--9-9-11-9---14---14-13--13-11--11-9--------------------------------|
-7-7-7--7--7-7-7--7---12---12-11--11-9---9--7--------------------------------|

Verse 3
------------------------------------------------------------------------------|
------------------------------------------------------------------------------|
------------------------------------------------------------------------------|
2222-2222-9999-9999-2222-2222-7777-7777-2222-2222-9999-9999-2222-2222-99-9999-|
2222-2222-9999-9999-2222-2222-7777-7777-2222-2222-9999-9999-2222-2222-99-9999-|
0000-0000-7777-7777-0000-0000-5555-5555-0000-0000-7777-7777-0000-0000-77-7777-|

Verse 4
-----------------------------------------------------------------------------|
-----------------------------------------------------------------------------|
-----------------------------------------------------------------------------|
2222-2222-9999-9999-2222-2222-7777-7777-2222-2222-9999-9999------------------|
2222-2222-9999-9999-2222-2222-7777-7777-2222-2222-9999-9999------------------|
0000-0000-7777-7777-0000-0000-5555-5555-0000-0000-7777-7777------------------|

-----------------------------------------------------------------------------|
-----------------------------------------------------------------------------|
-----------------------------------------------------------------------------|
-14---14-13--13-11--11-9-----------------------------------------------------|
-14---14-13--13-11--11-9-----------------------------------------------------|
-12---12-11--11-9---9--7-----------------------------------------------------|

Bridge (Palm Mute)
-----------------------------------------------------------------------------|
-----------------------------------------------------------------------------|
-----------------------------------------------------------------------------|
-12-12-12-12--12-12-12-12--11-11-11-11--9-9-9-9------------------------------|
-12-12-12-12--12-12-12-12--11-11-11-11--9-9-9-9------------------------------|
-10-10-10-10--10-10-10-10--9--9--9--9---7-7-7-7------------------------------|

(Palm Mute)
-----------------------------------------------------------------------------|
-----------------------------------------------------------------------------|
-----------------------------------------------------------------------------|
-12-12-12-12--12-12-12-12--11-11-11-11--9-9-9-9---2--2--3--3--4--4-----------|
-12-12-12-12--12-12-12-12--11-11-11-11--9-9-9-9---2--2--3--3--4--4-----------|
-10-10-10-10--10-10-10-10--9--9--9--9---7-7-7-7---0--0--1--1--2--2-----------|

-----------------------------------------------------------------------------|
-----------------------------------------------------------------------------|
-4444-4444-4444-4444---------------------------------------------------------|
-4444-4444-4444-4444---------------------------------------------------------|
-2222-2222-2222-2222---------------------------------------------------------|
-----------------------------------------------------------------------------|

Chorus 1
-----------------------------------------------------------------------------|
-----------------------------------------------------------------------------|
-----------------------------------------------------------------------------|
-14-14----------------------14-14--------------------14-14-------------------|
-14-14--9-9-11-9--9-9-11-9--14-14--7-7-9-7--7-7-9-7--14-14-------------------|
-12-12--7-7-7--7--7-7-7--7--12-12--5-5-5-5--5-5-5-5--12-12-------------------|

-----------------------------------------------------------------------------|
-----------------------------------------------------------------------------|
-----------------------------------------------------------------------------|
----------------------14-14-99-99-99-----------------------------------------|
-9-9-11-9--9-9-11-9---14-14-99-99-99-----------------------------------------|
-7-7-7--7--7-7-7--7---12-12-77-77-77-----------------------------------------|

Chorus 2
-----------------------------------------------------------------------------|
-----------------------------------------------------------------------------|
-----------------------------------------------------------------------------|
-14-14----------------------14-14--------------------14-14-------------------|
-14-14--9-9-11-9--9-9-11-9--14-14--7-7-9-7--7-7-9-7--14-14-------------------|
-12-12--7-7-7--7--7-7-7--7--12-12--5-5-5-5--5-5-5-5--12-12-------------------|

-----------------------------------------------------------------------------|
-----------------------------------------------------------------------------|
-----------------------------------------------------------------------------|
----------------------14---14-13--13-11--11-9--------------------------------|
-9-9-11-9--9-9-11-9---14---14-13--13-11--11-9--------------------------------|
-7-7-7--7--7-7-7--7---12---12-11--11-9---9--7--------------------------------|

Solo (With Normal Verse Palm Muted Underneath)
-----------------------------------------------------------------------------|
--—--------------9----9--10vv-9----9---------9--------12vvvv-----------------|
—9---9--11---11----11-----------11—--11-9-11---999vvv------------------------|
---9-------9-----------------------------------------------------------------|
-----------------------------------------------------------------------------|
-----------------------------------------------------------------------------|

-----------------------------------------------------------------------------|
------------------9---------9--11-------9--9------------9--------------------|
-9-----9--10------9--9--11--9--9---9/4--9--9--11-9--11--9--9-9-9-------------|
-9--9--9--9--9vv-----9--9----------9/4--------9--9--9------9-9-9-------------|
----9--------9vv-------------------------------------------------------------|
-----------------------------------------------------------------------------|


-----------------------------------------------------------------------------|
-----------------------------------------------------------------------------|
-----------------------------------------------------------------------------|
-14---14-13--13-11--11-9-----------------------------------------------------|
-14---14-13--13-11--11-9-----------------------------------------------------|
-12---12-11--11-9---9--7-----------------------------------------------------|

Bridge (Palm Mute)
-----------------------------------------------------------------------------|
-----------------------------------------------------------------------------|
-----------------------------------------------------------------------------|
-12-12-12-12--12-12-12-12--11-11-11-11--9-9-9-9------------------------------|
-12-12-12-12--12-12-12-12--11-11-11-11--9-9-9-9------------------------------|
-10-10-10-10--10-10-10-10--9--9--9--9---7-7-7-7------------------------------|

(Palm Mute)
-----------------------------------------------------------------------------|
-----------------------------------------------------------------------------|
-----------------------------------------------------------------------------|
-12-12-12-12--12-12-12-12--11-11-11-11--9-9-9-9---2--2--3--3--4--4-----------|
-12-12-12-12--12-12-12-12--11-11-11-11--9-9-9-9---2--2--3--3--4--4-----------|
-10-10-10-10--10-10-10-10--9--9--9--9---7-7-7-7---0--0--1--1--2--2-----------|

-----------------------------------------------------------------------------|
-----------------------------------------------------------------------------|
-4444-4444-4444-4444---------------------------------------------------------|
-4444-4444-4444-4444---------------------------------------------------------|
-2222-2222-2222-2222---------------------------------------------------------|
-----------------------------------------------------------------------------|

Chorus Without Guitar until very end then play this
-----------------------------------------------------------------------------|
-----------------------------------------------------------------------------|
-----------------------------------------------------------------------------|
-99-99-99--------------------------------------------------------------------|
-99-99-99--------------------------------------------------------------------|
-77-77-77--------------------------------------------------------------------|

Chorus 2
-----------------------------------------------------------------------------|
-----------------------------------------------------------------------------|
-----------------------------------------------------------------------------|
-14-14----------------------14-14--------------------14-14-------------------|
-14-14--9-9-11-9--9-9-11-9--14-14--7-7-9-7--7-7-9-7--14-14-------------------|
-12-12--7-7-7--7--7-7-7--7--12-12--5-5-5-5--5-5-5-5--12-12-------------------|

-----------------------------------------------------------------------------|
-----------------------------------------------------------------------------|
-----------------------------------------------------------------------------|
----------------------14---14-13--13-11--11-9--------------------------------|
-9-9-11-9--9-9-11-9---14---14-13--13-11--11-9--------------------------------|
-7-7-7--7--7-7-7--7---12---12-11--11-9---9--7--------------------------------|


Continue chorus 1 and 2 and fade out
Suggest correction
comments
print report bad tab
1 comment total.
0 reply
simmons100 31 Jun 14, 2007 03:34 PM

some parts are rong the verse sholuld be palm muted

guest
You may want to rate the tab now too:
select rating
Wanna post a correction for this tab? Suggest correction