Oops, an error
Loading. Please wait.

Uk Bues tab

220 views 1 this week
no commentswrite comment
1 2 3 4 5
3 more votes to show rating
add to favorites
×
Save as Personal and add changes to this tab that will be seen only by you. Learn more ›
×
You can save this tab as Personal to edit and correct it or add notes. All changes will be seen only by you. Learn more »
launch autoscroll
font size
0
reset
how to read this tab
guitar tuner
edit
Autoscroll
slow
fast
+/-
esc
set tempo
stop
Author
Difficulty
----------------------------------------------------------------------------
                             UK BLUES - Twisted Wheel
-----------------------------------------------------------------------------

Tuning:standard

Lyrics may be off in some places

Non standard chords

   (e)   (a)
e|------------------------------------------|
B|------------------------------------------|
G|--9----14---------------------------------|
D|--9----14---------------------------------|
A|--7----12---------------------------------|
E|------------------------------------------|


Intro Times 2

e|-------------------------------------------------------------------------|
B|-------------------------------------------------------------------------|
G|---4--4--4-2-1--4--4--4-2-1---4--4--4-2-1--1-2-4--1-2-4------------------|
D|-------------------------------------------------------------------------|
A|-------------------------------------------------------------------------|
E|-0------------0-------------0--------------------------------------------|

Jonny sometimes puts an Asus in for anyone who cares.

E,A,E


E                                 E, EE
The empire begs down on its knees,
A                         E   E, EE
Drowning in debt, tax and fees.
e
Where?s all the times with money spent in a clung
A                                       e   D#,e
Love to make the most out of what we?ve got.

C              B A        A,B,C
Feel the culture burn away
C                    D A
And nothing gonna be like it used to be.

UK blues.

e|-------------------------------------------------------------------------|
B|-------------------------------------------------------------------------|
G|---4--4--4-2-1--4--4--4-2-1---4--4--4-2-1--1-2-4--1-2-4------------------|
D|-------------------------------------------------------------------------|
A|-------------------------------------------------------------------------|
E|-0------------0-------------0--------------------------------------------|

E                                   E, EE
Lietts off the water drags and comes,
A                                     E, EE
Spending all their money dropping bombs.
e
Two hundred cities burn, posh kids learn how to slide.
A                                          D#,e D#,e
The poorpers bite, the dust before they die.

C              B A        A,B,C
Feel the culture burn away
C                    D A
And nothing gonna be like it used to be. UK blues

E,A E,A
  UK blues UK Blues

e|-------------------------------------------------------------------------|
B|-------------------------------------------------------------------------|
G|---4--4--4-2-1--4--4--4-2-1---4--4--4-2-1--1-2-4--1-2-4------------------|
D|-------------------------------------------------------------------------|
A|-------------------------------------------------------------------------|
E|-0------------0-------------0--------------------------------------------|

e|----------------------------------------------------------|
B|----------------------------------------------------------|
G|-6-7-9-7-6766--18-18-18-18-18-18-18----16--16--16-14-13---|
D|------------------------------------14--------------------|
A|----------------------------------------------------------|
E|----------------------------------------------------------|


e|-----------------------------------------------------------------|
B|-----------------------------------------------------------------|
G|----16--16--16-14-13----16--16--16-14-13--16b16b16b16b16b16------|
D|-14------------------14------------------------------------------|
A|-----------------------------------------------------------------|
E|-----------------------------------------------------------------|


   E    A    E    A    E    A    E      A                   E
UK blues, UK blues, UK blues, UK blues, blues blu blu blu blu

E,EE AAAAAAAA     A, AA
(muted)Emigrate down under!
e
There?s no hope when the culture?s round my copes,
A                       e
is it any wonder why we drink.


              B A        B,A
Feel the culture burn away
C                    D A
And nothing gonna be like it used to be.
 E      A  E      A  E      A  E      A
 UK blues, UK blues, UK blues, UK blues.


e                   a
Taxes don?t come so easily,
e                   a
lalalalalaaalalalaalalalaal(not a clue what is sung)
e                   a
Got no time for your family,
e                        a                   e
The breath smells great, still hard to breathe.
       E
Uk blues

            
            
Suggest correction
Creating personal tab
Creating personal tab
You can edit any tab online and save it as your Personal.

You can edit, replace or remove any tab part or add personal notes – all changes will be seen only by you.

Personal tabs can be accessed anytime from any device, even offline.
Learn more »
Give kudos to tab author, rate the tab!
1 2 3 4 5
comments
print report bad tab
guest
You may want to rate the tab now too:
select rating
Wanna post a correction for this tab? Suggest correction