Oops, an error
Loading. Please wait.

El Juego De La Vida Chords

11 views 1 this week
no commentswrite comment
1 2 3 4 5
3 more votes to show rating
add to favorites
launch autoscroll
font size
0
reset
transpose
0
reset
display chords
guitar tuner
×
Best way to learn
"El Juego De La Vida"
Autoscroll
slow
fast
+/-
esc
set tempo
stop
Hola, es mi primera transcripcion espero que les agrade.

Empieza asi:

e ----------------------------------
b ----------------------------------
g -----7-9-9/11--11/9--7-9------9/11 
d -7-9---------------------9-7------
a ----------------------------------
E ----------------------------------


e ----------------------------------
b ----------------------------------
g -----7-9-9/11--11/9--7-9------7/9- 
d -7-9---------------------9-7------
a ----------------------------------
E ----------------------------------


Despues ya cuando pasa la intro pueden seguir con el bajo
hasta el coro, escuchen el ritmo:

e -----------------------------------------
b -----------------------------------------
g -----------------------------------------
d -----------------------------------------
a -----------------------------------------
E 0---0-0---0-3-3-3-5---0-0--0-0--0-3-3-3-5

Para el coro lo pueden acompañar con estos acordes:


              C   C   C   C    G
Y viven el amor como una fiesta

G  G  G  C  C  C  C  G  G  G  G 
aunque alguna vez haga llorar.

      C                      E
De su juventud, no se olvidaran jamas

    C       G         F      C
locura, cordura, por igual...


Despues sigue el bajo y el coro otra ves. Escuchen la
canción y agarraran el ritmo.

moteuchi_17@


Saludos Panos :P dedicado a CGG y LMOR
Suggest correction
Give kudos to tab author, rate the tab!
1 2 3 4 5
comments
print report bad tab
guest
You may want to rate the tab now too:
select rating
Wanna post a correction for this tab? Suggest correction