Oops, an error
Loading. Please wait.

El Juego De La Vida Tab

version 2
version 2

Whole song

7 views 1 this week
no commentswrite comment
1 2 3 4 5
3 more votes to show rating
add to favorites
launch autoscroll
font size
0
reset
how to read this tab
guitar tuner
Autoscroll
slow
fast
+/-
esc
set tempo
stop
Help us to improve Ultimate-Guitar.com Take our survey!
×
Es mi primera participación, disfrutenla.
INTRO:
  \
   \ 
1|  |-----------------------------------
2|) |-----------------------------------
3|  |----7-9-9/11~-11/9~-7-9------9/11~-
4|  |-7-9--------------------9~-7-------
5|) |-----------------------------------
6|  |-----------------------------------  
   /
  /

  \
   \ 
1|  |----------------------------------
2|) |----------------------------------
3|  |----7-9-9/11~-11/9~-7-9------7/9~-
4|  |-7-9--------------------9~-7------
5|) |----------------------------------
6|  |----------------------------------  
   /
  /
Dudas ó sugerencias:
          s_n_i_kmx@
Suggest correction
Give kudos to tab author, rate the tab!
1 2 3 4 5
comments
print report bad tab
guest
You may want to rate the tab now too:
select rating
Wanna post a correction for this tab? Suggest correction