Oops, an error
Loading. Please wait.

Are We Ready tab

version 3
version 3

Whole song

  • Complete tab for the entire song Are We Ready by Two Door Cinema Club.
121 views 12 this week
1 commentread comment
1 2 3 4 5
2 more votes to show rating
add to favorites
×
Save as Personal and add changes to this tab that will be seen only by you. Learn more ›
×
You can save this tab as Personal to edit and correct it or add notes. All changes will be seen only by you. Learn more »
launch autoscroll
font size
0
reset
how to read this tab
guitar tuner
edit
Autoscroll
slow
fast
+/-
esc
set tempo
stop
About this tab version
Complete tab for the entire song Are We Ready by Two Door Cinema Club. Was this info helpful? Yes No
[Intro and Verse 1]
   Gm Dm Bb Dm Gm Dm C  C
e|-3--5--6--5--3--5--3--3-|
B|-3--6--6--6--3--6--5--5-|
G|-3--7--7--7--3--7--5--5-| (2x)
D|-5--7--8--7--5--7--5--5-|
A|-5--5--8--5--5--5--3--3-|
E|-3--5--6--5--3--5--3--3-|

[Pre-Chorus]
e|-------------------------------------|-------------------------------------|
B|-------------------------------------|-------------------------------------|
G|-12/14\12-12/14\12-12/14\12----------|-12/14\12-12/14\12-12/14\12----------| (3x)
D|----------------------------12/14\12-|----------------------------12/14\12-|
A|-------------------------------------|-------------------------------------|
E|-------------------------------------|-------------------------------------|

e|-------------------------------------|-------------------------------------|
B|-------------------------------------|-------------------------------------|
G|-12/14\12-10/12\10-------------------|-12/14\12-10/12\10-------------------|
D|-------------------12/14\12-10/12\10-|-------------------12/14\12-10/12\10-|
A|-------------------------------------|-------------------------------------|
E|-------------------------------------|-------------------------------------|

[Chorus]
   Dm F  C  Bb Dm F  C  C
e|-5--1--3--6--5--1--3--3-|
B|-6--1--5--6--6--1--5--5-|
G|-7--2--5--7--7--2--5--5-| 
D|-7--3--5--8--7--3--5--5-|
A|-5--3--3--8--5--3--3--3-|
E|-5--1--3--6--5--1--3--3-|

[Verse 2]
   Gm Dm Bb Dm Gm Dm C  C
e|-3--5--6--5--3--5--3--3-|
B|-3--6--6--6--3--6--5--5-|
G|-3--7--7--7--3--7--5--5-|
D|-5--7--8--7--5--7--5--5-|
A|-5--5--8--5--5--5--3--3-|
E|-3--5--6--5--3--5--3--3-|

[Pre-Chorus]
e|-------------------------------------|-------------------------------------|
B|-------------------------------------|-------------------------------------|
G|-12/14\12-12/14\12-12/14\12----------|-12/14\12-12/14\12-12/14\12----------| (3x)
D|----------------------------12/14\12-|----------------------------12/14\12-|
A|-------------------------------------|-------------------------------------|
E|-------------------------------------|-------------------------------------|

e|-------------------------------------|-------------------------------------|
B|-------------------------------------|-------------------------------------|
G|-12/14\12-10/12\10-------------------|-12/14\12-10/12\10-------------------|
D|-------------------12/14\12-10/12\10-|-------------------12/14\12-10/12\10-|
A|-------------------------------------|-------------------------------------|
E|-------------------------------------|-------------------------------------|

[Chorus]
   Dm F  C  Bb Dm F  C  C
e|-5--1--3--6--5--1--3--3-|
B|-6--1--5--6--6--1--5--5-|
G|-7--2--5--7--7--2--5--5-| 
D|-7--3--5--8--7--3--5--5-|
A|-5--3--3--8--5--3--3--3-|
E|-5--1--3--6--5--1--3--3-|

[Bridge]
   Gm Bb Dm C  Gm F  C  C
B|-3--6--6--5--3--1--3--3-|
B|-3--6--6--5--3--1--5--5-|
G|-3--7--7--5--3--2--5--5-| 
D|-5--8--7--5--5--3--5--5-|
A|-5--8--5--3--5--3--3--3-|
E|-3--6--5--3--3--1--3--3-|

[Instrumental + Pre-Chorus + Chorus] (Repeat this 3x)
e|-------------------------------------|-------------------------------------|
B|-------------------------------------|-------------------------------------|
G|-12/14\12-12/14\12-12/14\12----------|-12/14\12-12/14\12-12/14\12----------| (3x)
D|----------------------------12/14\12-|----------------------------12/14\12-|
A|-------------------------------------|-------------------------------------|
E|-------------------------------------|-------------------------------------|

e|-------------------------------------|-------------------------------------|
B|-------------------------------------|-------------------------------------|
G|-12/14\12-10/12\10-------------------|-12/14\12-10/12\10-------------------|
D|-------------------12/14\12-10/12\10-|-------------------12/14\12-10/12\10-|
A|-------------------------------------|-------------------------------------|
E|-------------------------------------|-------------------------------------|


***********************************

| /   Slide up
| \   Slide down

***********************************

            
            
Suggest correction
Creating personal tab
Creating personal tab
You can edit any tab online and save it as your Personal.

You can edit, replace or remove any tab part or add personal notes – all changes will be seen only by you.

Personal tabs can be accessed anytime from any device, even offline.
Learn more »
Give kudos to tab author, rate the tab!
1 2 3 4 5
comments
print report bad tab
1 comment total.
0 reply
derrekmcfarla 10 Sep 08, 2017 12:03 AM

spot on! thanks for this

guest
You may want to rate the tab now too:
select rating
Wanna post a correction for this tab? Suggest correction