Oops, an error
Loading. Please wait.

Bad Decisions Tab

version 1
version 1

Whole song

574 views 66 this week
no commentswrite comment
1 2 3 4 5
x 3
add to favorites
launch autoscroll
font size
0
reset
how to read this tab
guitar tuner
Autoscroll
slow
fast
+/-
esc
set tempo
stop
Help us to improve Ultimate-Guitar.com Take our survey!
×
Author
Difficulty
novice
About this tab version
This is the lead guitar part. Was this info helpful? Yes No
Two Door Cinema Club - Bad Decisions 
Tabbed by: Bruno Rodriguez



[Intro]

e|-----11-11-11-11/13\---------13/15-13-11-----11/13-------13\------13/15-13-11-|
B|--------------------------------------------------15-13-----------------------|
G|------------------------------------------------------------------------------|
D|------------------------------------------------------------------------------|
A|------------------------------------------------------------------------------|
E|------------------------------------------------------------------------------|

e|--------------13\-------------------------------------------------------------|
B|--13/15-13-11-----------10-11--10p8p6-----13-13-13-13/15-13-11----------------|
G|---------------------------------------------------------------12-------------|
D|------------------------------------------------------------------------------|
A|------------------------------------------------------------------------------|
E|------------------------------------------------------------------------------|


[Verse]

  slay me....
e|---------------------------------------------------------------------------|
B|---------------------------------------------------------------------------|
G|-----8-11--x--8--11-----8-11-11---x---8-11--x--8--11-----8-11-11-----------|
D|---------------------------------------------------------------------------| x2
A|---------------------------------------------------------------------------|
E|---------------------------------------------------------------------------|

e|---------------------------------------------------------------------------|
B|---------------------------------------------------------------------------|
G|---------------------------------------------------------------------------|
D|---------------------------------------------------------------------------|
A|---------------------------------------------------------------------------|
E|---------------------------------------------------------------------------|


[Chorus]

e|-----11-11-11-11/13\---------13/15-13-11-----11/13-------13\------13/15-13-11-|
B|--------------------------------------------------15-13-----------------------|
G|------------------------------------------------------------------------------|
D|------------------------------------------------------------------------------|
A|------------------------------------------------------------------------------|
E|------------------------------------------------------------------------------|

e|--------------13\-------------------------------------------------------------|
B|--13/15-13-11-----------10-11--10p8p6-----13-13-13-13/15-13-11----------------|
G|------------------------------------------------------------------------------|
D|------------------------------------------------------------------------------|
A|------------------------------------------------------------------------------|
E|------------------------------------------------------------------------------|


[Verse 2]

  so baby....
e|---------------------------------------------------------------------------|
B|---------------------------------------------------------------------------|
G|-----8-11--x--8--11-----8-11-11---x---8-11--x--8--11-----8-11-11-----------|
D|---------------------------------------------------------------------------| x2
A|---------------------------------------------------------------------------|
E|---------------------------------------------------------------------------|


[Chorus]

e|-----11-11-11-11/13\---------13/15-13-11-----11/13-------13\------13/15-13-11-|
B|--------------------------------------------------15-13-----------------------|
G|------------------------------------------------------------------------------|
D|------------------------------------------------------------------------------|
A|------------------------------------------------------------------------------|
E|------------------------------------------------------------------------------|   

e|--------------13\-------------------------------------------------------------|
B|--13/15-13-11-----------10-11--10p8p6-----13-13-13-13/15-13-11----------------|
G|------------------------------------------------------------------------------|
D|------------------------------------------------------------------------------|  
A|------------------------------------------------------------------------------|
E|------------------------------------------------------------------------------|

e|-----11-11-11-11/13\---------13/15-13-11-----11/13-------13\------13/15-13-11-|
B|--------------------------------------------------15-13-----------------------|
G|------------------------------------------------------------------------------|
D|------------------------------------------------------------------------------|
A|------------------------------------------------------------------------------|
E|------------------------------------------------------------------------------|   

e|--------------13\-------------------------------------------------------------|
B|--13/15-13-11-----------10-11--10p8p6-----13-13-13-13/15-13-11----------------|
G|------------------------------------------------------------------------------|
D|------------------------------------------------------------------------------|  
A|------------------------------------------------------------------------------|
E|------------------------------------------------------------------------------|


[Solo]

e|--------8----------------------------11-11~--------------------------------|
B|---8b10---10br8--------9-11------------------8-8---------------------------|
G|----------------8/10~-------10-6/8~--------------8/10~---------------------|
D|---------------------------------------------------------------------------|
A|---------------------------------------------------------------------------|
E|---------------------------------------------------------------------------|

e|------------------------18b19--18p16---16/18-18b19--18p16---16/18----------|
B|-----13h16h13--16b18-----------------18-------------------18---------------|
G|--15-----------------------------------------------------------------------|
D|---------------------------------------------------------------------------|
A|---------------------------------------------------------------------------|
E|---------------------------------------------------------------------------|

e|---18b19--18p16---16/18-18b19--18p16---------------------------------------|
B|----------------18-------------------18--16b18-----------------------------|
G|---------------------------------------------------------------------------|
D|---------------------------------------------------------------------------|
A|---------------------------------------------------------------------------|
E|---------------------------------------------------------------------------|


[Chorus]

e|-----11-11-11-11/13\---------13/15-13-11-----11/13-------13\------13/15-13-11-|
B|--------------------------------------------------15-13-----------------------|
G|------------------------------------------------------------------------------|
D|------------------------------------------------------------------------------|
A|------------------------------------------------------------------------------|
E|------------------------------------------------------------------------------|   

e|--------------13\-------------------------------------------------------------|
B|--13/15-13-11-----------10-11--10p8p6-----13-13-13-13/15-13-11----------------|
G|------------------------------------------------------------------------------|
D|------------------------------------------------------------------------------|  
A|------------------------------------------------------------------------------|
E|------------------------------------------------------------------------------|

e|-----11-11-11-11/13\---------13/15-13-11-----11/13-------13\------13/15-13-11-|
B|--------------------------------------------------15-13-----------------------|
G|------------------------------------------------------------------------------|
D|------------------------------------------------------------------------------|
A|------------------------------------------------------------------------------|
E|------------------------------------------------------------------------------|   

e|--------------13\-------------------------------------------------------------|
B|--13/15-13-11-----------10-11--10p8p6-----13-13-13-13/15-13-11----------------|
G|------------------------------------------------------------------------------|
D|------------------------------------------------------------------------------|  
A|------------------------------------------------------------------------------|
E|------------------------------------------------------------------------------|


[Outro]

e|--------|
B|--------|
G|--------|
D|---10---|
A|---10---|
E|---8----|


That's it. Enjoy :)

************************************

| x   Dead note
| h   Hammer-on
| p   Pull-off
| b   Bend
| br  Bend release
| /   Slide up
| \   Slide down
| ~   Vibrato


************************************
Suggest correction
Give kudos to tab author, rate the tab!
1 2 3 4 5
comments
print report bad tab
guest
You may want to rate the tab now too:
select rating
Wanna post a correction for this tab? Suggest correction