Oops, an error
Loading. Please wait.

Bad Decisions Tab

version 2
version 2

Whole song

133 views 21 this week
no commentswrite comment
1 2 3 4 5
1 last vote to show rating
add to favorites
launch autoscroll
font size
0
reset
how to read this tab
guitar tuner
Autoscroll
slow
fast
+/-
esc
set tempo
stop
Help us to improve Ultimate-Guitar.com Take our survey!
×
Author
Difficulty
intermediate
Chorus and intro are the same. And I did what I could with the verses. If anyone knows the solo, feel free to
add it on there.

[Intro] 
e|---------------------------------------------------------------------------|
B|-16-16-16-18----/20-18-16--/18-15----18---/20-18-16---/15-13-11--18--------|
G|----------------------------------17---------------------------------------|
D|---------------------------------------------------------------------------|
A|---------------------------------------------------------------------------|
E|---------------------------------------------------------------------------|

e|---------------------------------------------------------------------------|
B|---------------------------------------------------------------------------|
G|-12-14-15--14-12-10----17-17-17-17/19\17-15--------------------------------|
D|---------------------------------------------------------------------------|
A|---------------------------------------------------------------------------|
E|---------------------------------------------------------------------------|

The verse sounds like a D# note played into an F note. I've found it sounds good to play it anywhere on the 
fret board. Listen to the song for timing. Generally, I play:
 
[Verse] 
e|---------------------------------------------------------------------------|
B|---------------------------------------------------------------------------|
G|--8-8-xx-8-x-10------------------------------------------------------------|
D|---------------------------------------------------------------------------|
A|---------------------------------------------------------------------------|
E|---------------------------------------------------------------------------|

[Variation]
e|---------------------------------------------------------------------------|
B|-16-16-xx-16-x-18----------------------------------------------------------|
G|---------------------------------------------------------------------------|
D|---------------------------------------------------------------------------|
A|---------------------------------------------------------------------------|
E|---------------------------------------------------------------------------|

[Chorus]
e|---------------------------------------------------------------------------|
B|-16-16-16-18----/20-18-16--/18-15----18---/20-18-16---/15-13-11--18--------|
G|----------------------------------17---------------------------------------|
D|---------------------------------------------------------------------------|
A|---------------------------------------------------------------------------|
E|---------------------------------------------------------------------------|

e|---------------------------------------------------------------------------|
B|---------------------------------------------------------------------------|
G|-12-14-15--14-12-10----17-17-17-17/19\17-15--------------------------------|
D|---------------------------------------------------------------------------|
A|---------------------------------------------------------------------------|
E|---------------------------------------------------------------------------|

 
************************************

| /  Slide up
| \  Slide down
| x  Dead note

************************************
Suggest correction
Give kudos to tab author, rate the tab!
1 2 3 4 5
comments
print report bad tab
guest
You may want to rate the tab now too:
select rating
Wanna post a correction for this tab? Suggest correction