Oops, an error
Loading. Please wait.

Cigarettes In The Theatre Bass Tab

version 4
version 4

Whole song

9,396 views 15 this week
no commentswrite comment
1 2 3 4 5
excellent!
x 7
add to favorites
launch autoscroll
font size
0
reset
guitar tuner
Autoscroll
slow
fast
+/-
esc
set tempo
stop
Help us to improve Ultimate-Guitar.com Take our survey!
×
Contributor
Difficulty
Pedro Zappa 2,709
intermediate
Artist: Two Door Cinema Club

Album: Tourist History

Song: Cigarettes In The Theatre



Intro

G||--------------------|--------------------|
D||--------------------|-----------5-5------|
A||-0-0----0--0----0---|----------------7-7-|
E||--------------------|--------------------|

G||--------------------|--------------------||
D||--------------------|--------------------||  x3
A||-3-3----3--3----3---|-----------3-3--5-5-||
E||--------------------|--------------------||

G||--------------------|--------------------|
D||--------------------|-----------5-5------|
A||-0-0----0--0----0---|----------------7-7-|
E||--------------------|--------------------|

G||--------------------|--------------------||
D||--------------------|--------------------||
A||-3-3----3--3----3---|--------------------||
E||--------------------|--------------------||

---

G||--------------------|--------------------|
D||-----------5--------|-----------5--------|
A||-0----0------7--0-3-|---3--3-3----7--3---|
E||--------------------|--------------------|

G||--------------------|--------------------||
D||-----------5--------|-----------5--------||  x2
A||-------------7------|-------------7------||
E||-3----3---------0-3-|---3--3-3-------3---||


Verse

G||-------------------|-------------------|
D||-------------------|-------------------|
A||-0----0----0--0--2-|-3----3----3--3--3-|
E||-------------------|-------------------|

G||-------------------|-------------------|
D||-------------------|-------------------|
A||-------------------|-7----7----7--7--7-|
E||-3----3----3--0--3-|-------------------|

---

G||-------------------|-------------------|
D||-------------------|-------------------|
A||-0----0----0--0--2-|-3----3----3--3--3-|
E||-------------------|-------------------|

G||-------------------|--------------------||
D||-------------------|--------------------||
A||-------------------|-7----7----7-7--7---||
E||-3----3----3--0--3-|--------------------||


Chorus

G||--------------------|---------------------|
D||--------------------|---------------------|
A||-7-7----7--7-7--7-7-|---7--7-7--9-9--10\--|
E||--------------------|---------------------|

G||--------------------|--------------------|
D||--------------------|--------------------|
A||-3-3----3--3-3----3-|---3----3--3-3--3-3-|
E||--------------------|--------------------|

G||--------------------|--------------------|
D||--------------------|--------------------|
A||--------------------|--------------------|
E||-3-3----3--3----3-3-|---3--3----3-3--3-3-|

G||--------------------|--------------------||
D||--------------------|--------------------||  x2
A||-5-5----5--5----5-5-|-5-5--5-5--3-3--2-2-||
E||--------------------|--------------------||

---

G||--------------------|--------------------|
D||-----------5--------|-----------5--------|
A||-0----0------7--0-3-|---3--3-3----7--3---|
E||--------------------|--------------------|

G||--------------------|--------------------||
D||-----------5--------|-----------5--------||  x2
A||-------------7------|-------------7------||
E||-3----3---------0-3-|---3--3-3-------3---||


Verse 2

G||-------------------|-------------------|
D||-------------------|-------------------|
A||-0----0----0--0--2-|-3----3----3--3--3-|
E||-------------------|-------------------|

G||-------------------|-------------------|
D||-------------------|-------------------|
A||-------------------|-7----7----7--7--7-|
E||-3----3----3--0--3-|-------------------|

---

G||-------------------|-------------------|
D||-------------------|-------------------|
A||-0----0----0--0--2-|-3----3----3--3--3-|
E||-------------------|-------------------|

G||-------------------|--------------------||
D||-------------------|--------------------||
A||-------------------|-7----7----7-7--7---||
E||-3----3----3--0--3-|--------------------||


Chorus 2

G||--------------------|---------------------|
D||--------------------|---------------------|
A||-7-7----7--7-7--7-7-|---7--7-7--9-9--10\--|
E||--------------------|---------------------|

G||--------------------|--------------------|
D||--------------------|--------------------|
A||-3-3----3--3-3----3-|---3----3--3-3--3-3-|
E||--------------------|--------------------|

G||--------------------|--------------------|
D||--------------------|--------------------|
A||--------------------|--------------------|
E||-3-3----3--3----3-3-|---3--3----3-3--3-3-|

G||--------------------|--------------------||
D||--------------------|--------------------||  x2
A||-5-5----5--5----5-5-|-5-5--5-5--3-3--2-2-||
E||--------------------|--------------------||

---

G||--------------------|--------------------|
D||-----------5--------|-----------5--------|
A||-0----0------7--0-3-|---3--3-3----7--3---|
E||--------------------|--------------------|

G||--------------------|--------------------||
D||-----------5--------|-----------5--------||  x2
A||-------------7------|-------------7------||
E||-3----3---------0-3-|---3--3-3-------3---||


Outro

(wait)

G||--------------------|--------------------||
D||--------------------|--------------------||  x2
A||--------------------|--------------------||
E||--------------------|--------------------||

G||--------------------|--------------------|
D||-14---14---14---14--|-14---14---14---14--|
A||--------------------|--------------------|
E||--------------------|--------------------|

G||--------------------|--------------------|
D||--------------------|--------------------|
A||--------------------|--------------------|
E||--------------------|--------------------|

G||--------------------|--------------------|
D||-14---14---14---14--|-14---14---14---14--|
A||--------------------|--------------------|
E||--------------------|--------------------|

G||--------------------|--------------------|
D||-13---13---12---12--|--------------------|
A||--------------------|--------------------|
E||--------------------|--------------------|

Chorus 3


G||--------------------|---------------------|
D||--------------------|---------------------|
A||-3-3----3--3-3----3-|---3----3--3-3--3-5\-|
E||--------------------|---------------------|

G||--------------------|--------------------||
D||--------------------|--------------------||  x4
A||--------------------|--------------------||
E||-3-3----3--3----3-3-|---3--3----3-3--5-5-||

---

G||--------------------|---------------------|
D||--------------------|---------------------|
A||-3-3----3--3-3----3-|---3----3--3-3--3-5\-|
E||--------------------|---------------------|

G||--------------------|--------------------||
D||--------------------|--------------------||  x4
A||--------------------|--------------------||
E||-3-3----3--3----3-3-|---3--3----3-3--5---||


Outro Full

G||--------------------|--------------------||
D||--------------------|--------------------||  x2
A||--------------------|-12---14------------||
E||-0---------8-7------|-----------8-7------||


tab by: Pedro Zappa
comments
print report bad tab
I want to post or [tab]
guest
You may want to rate the tab now too:
select rating
Please do not post tabs as comments. Select "correction" instead!