Oops, an error
Loading. Please wait.

Come Back Home Bass Tab

version 1
version 1

Whole song

Interactive

7,382 views 15 this week
2 commentsread comments
1 2 3 4 5
x 3
add to favorites
launch autoscroll
font size
0
reset
guitar tuner
Autoscroll
slow
fast
+/-
esc
set tempo
stop
Help us to improve Ultimate-Guitar.com Take our survey!
×
Author
Difficulty
novice
-------------------------------------------------------------------------------
 		COME BACK HOME - Two Door Cinema Club
-------------------------------------------------------------------------------
Tabbed By : k8mc
e-mail:  x_k8_xx@yahoo.co.uk

Tuning: Standard


Listen for the rhythm...
0:30
G|-------------------------------------------|
D|-------------------------------------------|
A|3---3---3-3--1--3--13---13---13-13--10--6--| x4
E|-------------------------------------------|

0:46
G|---------------------------------------------|
D|10---10---10--------8---8---8----------------|
A|---------------10\--------------8-8--8-10----| x4
E|---------------------------------------------|

1:02
G|----------------------------------------------8-------------------|
D|----------------------------5---------------8---------------------|
A|3---3---3---1-3-6---6---6-----6-8---8---8-------3---3---3---13-13-|
E|------------------------------------------------------------------|

G|----------------------------------------------8---------------------|
D|----------------------------5---------------8-----------------------|
A|3---3---3---1-3-6---6---6-----6-8---8---8-------3-3-3-3-13-13-10-10-|
E|--------------------------------------------------------------------|

1:17
G|----------------------------------------|
D|------13-13-------10-13-----8-8-----8-5-|
A|11-11-------11-11-------6-6-----6-6-----| x3
E|----------------------------------------|

G|----------------------------------------|
D|----------------------------------------|
A|8-8/15\---8-8/15\---8-8/15\---8-8/15\---|
E|----------------------------------------|

1:33
Repeat whole thing

2:35
G|-------------------------------------------|
D|-------------------------------------------|
A|3---3---3-3--1--3--13---13---13-13--10--6--| x4
E|-------------------------------------------|

2:50
Rest

3:06
G|----------------------------------------|
D|------13-13-------10-13-----8-8-----8-5-|
A|11-11-------11-11-------6-6-----6-6-----| x3
E|----------------------------------------|

G|----------------------------------------------|
D|----------------------------------------------|
A|8-8/15\---8-8/15\---8-8/15\---8-8/15\---3-3---|
E|----------------------------------------------|

This guy
http://www.youtube.com/watch?v=sgLVwA4wDVE
plays it differently if you don't like sliding your hand as much, but I'm fairly sure 
this is how the real guy plays it :)

Comments & feedback welcome
Enjoy!

| /  slide up
| \  slide down
| h  hammer-on
| p  pull-off
| ~  vibrato
| +  harmonic
| x  Mute note
===============================================================================
Suggest correction
Give kudos to tab author, rate the tab!
1 2 3 4 5
comments
print report bad tab
2 comments total.
0 reply
smitti_cr4 50 Mar 31, 2012 08:03 AM

first off, very good tab, its farily accurate, but there some small parts that need correcting, I play it at a different place on the fretboard (higher strings) as it makes transitions easier and smoother:



Verses , when the singing starts

G|-----5-5-5--------3-3-3---------------|
D|-----------5------------33-5----------| x 4
A|-------------6------------------------|
E|--------------------------------------|

Bridge before chorus

G|-------------------------------8---------------|
D|------------------4---------10----------8-8----|
A|--3-3-3-1-3-5-5-5---5-8-8-8------3-3-3/--------|
E|-----------------------------------------------|

G|-------------------------------8-------------------|
D|------------------4---------10---------------------|
A|--3-3-3-1-3-5-5-5---5-8-8-8------3-3-3-3-3-3-3-3---|
E|---------------------------------------------------|

Chorus

G|------8-8-----8/12-------------------|
D|--6-6-----6-6-----------8-8-----8-5--|
A|-------------------6-6------6-6------|
E|-------------------------------------|
x 1
G|-----8-8-----8/12---------8----------|
D|-6-6-----6-6----------8-------8-5----|
A|------------------6-6---6---6--------|
E|-------------------------------------|

G|-------------------------|
D|-------------------------| x4
A|--8-8/15-15-15/8---------|
E|-------------------------|

Last verse after bass drum break down

G|------------------------------------------------------------|
D|------------------------------------------------------------|
A|------------------------------------------------------------|
E|--4-4-4-4-4-4-4-4/11-11-11-11-11-11-11-11-------------------|

G|------------------------------------------------------------|
D|------------------------------------------------------------|
A|--------------------------------------15-15-15\3-3-3--------|
E|-/13-13-13-13-13-13-13-13-13-13-13-13-----------------------|

0 reply
smitti_cr4 50 Mar 31, 2012 08:05 AM

The intro is spot on btw :)

guest
You may want to rate the tab now too:
select rating
Wanna post a correction for this tab? Suggest correction