Oops, an error
Loading. Please wait.

Come Back Home Bass Tab

version 2
version 2

Whole song

Interactive

1,611 views 3 this week
no commentswrite comment
1 2 3 4 5
please rate
add to favorites
launch autoscroll
font size
0
reset
guitar tuner
Autoscroll
slow
fast
+/-
esc
set tempo
stop
Help us to improve Ultimate-Guitar.com Take our survey!
×
Contributor
Difficulty
Pedro Zappa 2,699
intermediate
Artist: Two Door Cinema Club

Album: Tourist History

Song: Come Back Home



Intro

G||--------------------|-----------------------||
D||--------------------|-----------------------||  x4
A||-----------------8/-|-13----13----13--10--6-||
E||-8----8----8--6-----|-----------------------||


Verse

G||-------------------------|------------------------||
D||-10-----10-----10--------|-8------8------8--------||  x4
A||-------------------10--6-|------------------8--10-||
E||-------------------------|------------------------||

---

G||-------------------|-------------------|
D||-------------------|--------------5----|
A||-------------------|-6----6----6-----6-|
E||-8----8----8--6--8-|-------------------|

G||------------------8-|----------------------|
D||--------------10----|----------------------|
A||-8----8----8--------|--------------/13--13-|
E||--------------------|-8----8----8----------|

G||-------------------|-------------------|
D||-------------------|--------------5----|
A||-------------------|-6----6----6-----6-|
E||-8----8----8--6--8-|-------------------|

G||------------------8-|------------------------||
D||--------------10----|------------------------||
A||-8----8----8--------|-------------/13--13-13-||
E||--------------------|-8-8--8-8--8------------||


Chorus

G||-------------------------12-|-----------------------------||
D||--------13-13---------13----|-----------------------------||  x3
A||-11-11---------11-11--------|--------13-13----------13----||
E||----------------------------|-11-11----------11-11-----11-||

G||----------------------------|----------------------------|
D||----------------------------|----------------------------|
A||-8-8/--15-15\--8-8/--15-15\-|-8-8/--15-15\--8-8/--15-15\-|
E||----------------------------|----------------------------|

---

G||--------------------|-----------------------||
D||--------------------|-----------------------||  x4
A||-----------------8/-|-13----13----13--10--6-||
E||-8----8----8--6-----|-----------------------||


Verse 2

G||-------------------------|------------------------||
D||-10-----10-----10--------|-8------8------8--------||  x4
A||-------------------10--6-|------------------8--10-||
E||-------------------------|------------------------||

---

G||-------------------|-------------------|
D||-------------------|--------------5----|
A||-------------------|-6----6----6-----6-|
E||-8----8----8--6--8-|-------------------|

G||------------------8-|----------------------|
D||--------------10----|----------------------|
A||-8----8----8--------|--------------/13--13-|
E||--------------------|-8----8----8----------|

G||-------------------|-------------------|
D||-------------------|--------------5----|
A||-------------------|-6----6----6-----6-|
E||-8----8----8--6--8-|-------------------|

G||------------------8-|------------------------||
D||--------------10----|------------------------||
A||-8----8----8--------|-------------/13--13-13-||
E||--------------------|-8-8--8-8--8------------||


Chorus 2

G||-------------------------12-|-----------------------------||
D||--------13-13---------13----|-----------------------------||  x3
A||-11-11---------11-11--------|--------13-13----------13----||
E||----------------------------|-11-11----------11-11-----11-||

G||----------------------------|----------------------------|
D||----------------------------|----------------------------|
A||-8-8/--15-15\--8-8/--15-15\-|-8-8/--15-15\--8-8/--15-15\-|
E||----------------------------|----------------------------|

---

G||--------------------|-----------------------||
D||--------------------|-----------------------||  x4
A||-----------------8/-|-13----13----13--10--6-||
E||-8----8----8--6-----|-----------------------||

(wait)


Chorus 3

G||--------------------|--------------------||
D||--------------------|--------------------||  x3
A||--------------------|-6-6--6-6--6-6--6-6-||
E||-4-4--4-4--4-4--4-4-|--------------------||

G||--------------------|--------------------------------|
D||--------------------|-------------10.10--10.10-10.10-|
A||-8-8--8-8--8-8--8-8-|-8-8--8-8--8--------------------|
E||--------------------|--------------------------------|

G||--------------------||
D||--------------------||
A||--------------------||
E||-8----8-------------||


tab by: Pedro Zappa
comments
We did not receive enough feedback on this tab! Please rate:
print report bad tab
1 2 3 4 5
I want to post or [tab]
guest
You may want to rate the tab now too:
select rating
Please do not post tabs as comments. Select "correction" instead!