Oops, an error
Loading. Please wait.

Costume Party Tab

version 1
version 1

Whole song

14,785 views 6 this week
3 commentsread comments
1 2 3 4 5
x 5
add to favorites
launch autoscroll
font size
0
reset
how to read this tab
guitar tuner
Autoscroll
slow
fast
+/-
esc
set tempo
stop
Help us to improve Ultimate-Guitar.com Take our survey!
×
Author
-------------------------------------------------------------------------------
                             Costume party- 2 door cinema club
----------------------------------------------------------------------------
Tabbed by: Edwan Shibli
Email:Ibombedurhouse@live.co.uk

Tuning: Open(E,A,D,G,B,E)

Intro(not played on guitar,continues throughout the song):

e|-12-12-12-12-12-12-12-12-| etc..
B|-------------------------|
G|-------------------------|
D|-------------------------|
A|-------------------------|
E|-------------------------|

Chords(00:04, not on guitar, but can be recreated with reverb-ish effects and hold the 
after playing):

e|-12--------11--------12----------------|
B|-14--------12--------14----------------|  X4
G|-14--------13--------13----------------|
D|-14--------13--------11----------------|

Riff 1(00:18):

e|-----------------------|
B|-14141412--------------|
G|----------13-14-13-----| X4
D|--------------------14-|
A|-----------------------|
E|-----------------------|

Riff 2(00:30, play this through twice)
e|16-1616-----------------------------16-1616--------------------------------|
B|-------14-17-14-----------------------------14-17-14----------17-171717-14-|
G|----------------13-13-14-13-14---14------------------13-14-13--------------|
D|-------------------------------16------------------------------------------|

Riff 3(00:44, something like this)

e|-16-1416-19----16-1416-19----------------|
B|-------------13-----------13h14-13h14-13-|
G|-----------------------------------------| X2
D|-----------------------------------------|

Riff 4(00:58, over the top of riff 3)

e|----------------------------------------------------------------------|
B|-12-12--12-12--12-12---1214-12----1212---12-12----12-12----12-1412----| X2
G|------13-----13-----13---------13------13------13-------13---------13-|
D|----------------------------------------------------------------------|

Bridge(2:18-2:37)

e|------------17--|
B|-19-1717-19-----|
G|----------------|
D|----------------| X11


Bridge part 2(2:38-3:20)
e|--------16-19----|         e|--------16-19--------------|
B|-191919-------17-|         B|-191919--------------------|
G|-----------------| X2 then G|--------------141414-13----| X1
D|-----------------|         D|------------------------14-|

Play this whole segment 6 times. At 3:20 all instruments cut out and vocals continue.
This is my first tab. I know its not all 100% but its better than no tab at all. That 
thanks for looking and enjoy.

************************************

| /   slide up
| \   slide down
| h   hammer-on
| p   pull-off
| ~   vibrato
| +   harmonic
| x   Mute note
| b   Bend
| pb  Pre-bend
| br  Bend release
| pbr Pre-bend release
| brb Bend release bend

************************************
Suggest correction
comments
print report bad tab
3 comments total.
0 reply
Cbear117 10 Aug 28, 2010 05:23 PM

awesome tab dude! now i can shred like a pro dude! thanks alot dude! awesome tabbing skills mandude! if i could give you 10 stars i would dude! ***** dude!!!!!!!!

0 reply
tele118 31 Sep 10, 2010 05:04 PM

ok so the final part was sketchy. I do it like this

E--------------19
B-191919-17-19----17 and then.....

G-141414-13h14-16

Good tab otherwise

0 reply
0orangez 10 Feb 27, 2011 06:56 AM

Wow, thanks for writing out this tab! I can finally learn this song now hehe.
Though, if you dont mind, I have a suggestion for Riff 2, its a really minor thing though:

First half:


e|16-1616-------------------------------16-1616-----------------------------------|
B|-------14-17-14-------------------------------14-17-14-------------17-171717\14-|
G|----------------13-13-14-13-14-13--14------------------13-13-14-13--------------|
D|---------------------------------16---------------------------------------------|


Second half:

e|16-1616-------------------------------16-1616-----------------------------------|
B|-------14-17-14-------------------------------14-17----------------17-171717\14-|
G|----------------13-13-14-13-14-13--14------------------13-13-14-13--------------|
D|---------------------------------16---------------------------------------------|


Also Riff 3:

e|17-16-19--------17-16-19------------14--14-|
B|-------------17-----------------------17---|
G|---------16--------------16----------------|
D|---------------------------18h19p18--------|


Thanks a bunch for this!

guest
You may want to rate the tab now too:
select rating
Wanna post a correction for this tab? Suggest correction