Oops, an error
Loading. Please wait.

Do You Want It All Bass Tab

version 2
version 2

Whole song

Interactive

1,384 views 1 this week
no commentswrite comment
1 2 3 4 5
2 more votes to show rating
add to favorites
launch autoscroll
font size
0
reset
guitar tuner
Autoscroll
slow
fast
+/-
esc
set tempo
stop
Help us to improve Ultimate-Guitar.com Take our survey!
×
Author
Difficulty
Artist: Two Door Cinema Club

Album: Tourist History

Song: Do You Want It All?



In the last chorus he plays the lower D, as it is the only low D he plays 
the whole song I chose to tab it in standart tunning to avoid changing the 
tunning of your bass. I also wrote a 5th string so you can play the right
note in a 5-string bass. (and yeah, I tabbed the note he plays a octave
higher.)


Intro

(wait)

G||---||-----------------------------------||
D||---||-----------------------------------||  x4
A||---||-5-5----5--5-5----5--5-5----5--5---||
E||-5-||---------------------------------5-||


Verse

G||-----------------------------------||
D||-----------------------------------||  x4
A||-5----5----5----5----5----5----5---||
E||-----------------------------------||


Chorus

G||-----------------------------------|
D||-----------------------------------|
A||-5-5--5-5--5-5--5-5--5-5--5-5--5---|
E||---------------------------------5-|

G||-----------------------------------|
D||--------------------------7-7--9---|
A||-5-5--5-5--5-5--5-5--5-5---------0-|
E||-----------------------------------|

G||-----------------------------------|
D||-----------------------------------|
A||-5-5--5-5--5-5--5-5--5-5--5-5--5-5-|
E||-----------------------------------|

G||-----------------------------------||
D||--------------------------7-7--9---||  x2
A||-5-5--5-5--5-5--5-5--5-5---------0-||
E||-----------------------------------||


Verse 2

G||-----------------------------------|-----------------------------------|
D||-----------------------------------|-7----7----7----7----7----7----7-9-|
A||-5----5----5----5----5----5----5---|-----------------------------------|
E||---------------------------------5-|-----------------------------------|

G||-----------------------------------|-----------------------------------|
D||-5----5----5----5----5----5----5-7-|-4----4----4----4----4----4-5------|
A||-----------------------------------|-------------------------------7---|
E||-----------------------------------|-----------------------------------|


G||-----------------------------------|-----------------------------------|
D||-----------------------------------|-7----7----7----7----7----7----7-9-|
A||-5----5----5----5----5----5----5---|-----------------------------------|
E||---------------------------------5-|-----------------------------------|

G||-----------------------------------|-----------------------------------|
D||-5----5----5----5----5----5----5-7-|-4----4----4----4----4----4-5------|
A||-----------------------------------|-------------------------------7---|
E||-----------------------------------|-----------------------------------|


Chorus 2

G||-----------------------------------|
D||-----------------------------------|
A||-5-5--5-5--5-5--5-5--5-5--5-5--5---|
E||---------------------------------5-|

G||-----------------------------------|
D||--------------------------7-7--9---|
A||-5-5--5-5--5-5--5-5--5-5---------0-|
E||-----------------------------------|

G||-----------------------------------|
D||-----------------------------------|
A||-5-5--5-5--5-5--5-5--5-5--5-5--5---|
E||---------------------------------5-|

G||-----------------------------------||
D||--------------------------7-7--9---||  x4
A||-5-5--5-5--5-5--5-5--5-5---------0-||
E||-----------------------------------||

(wait)

G||-------------------------------------|-----------------------------------|
D||-------------------------------------|-----------------------------------|
A||--5-5--5-5--5-5--5-5--5-5--5-5--5-5--|-----------------------------------|
E||-------------------------------------|-5-5--5-5--5-5--5-5--5-5--5-5--5-5-|
B||-(3-3--3-3--3-3--3-3--3-3--3-3--3-3)-|

G||-----------------------------------|-----------------------------------|
D||-----------------------------------|-----------------------------------|
A||-----------------------------------|-----------------------------------|
E||-3-3--3-3--3-3--3-3--3-3--3-3--3-3-|-2-2--2-2--2-2--2-2--2-2--2-2--2-2-|

G||-----------------------------------|
D||-----------------------------------| fading...
A||-----------------------------------|
E||-2-2--2-2--2-2--2-2--2-2--2-2--2-2-|

---

G||-----------------------------------|
D||---------------------------------4-|
A||-5-5-------5-5-------5-5-------5---|
E||--------5---------5---------5------|

G||-----------------------------------|
D||-7-7-------7-7-------7-7-------7-9-|
A||--------5---------5---------5------|
E||-----------------------------------|

G||-----------------------------------|
D||-5-5----5--5-5----5--5-5----5--5-7-|
A||-----------------------------------|
E||-----------------------------------|

G||-----------------------------------||
D||-4-4----4--4-4----4--4-4----5------||  x5
A||-------------------------------7-7-||
E||-----------------------------------||


tab by: Pedro Zappa
Suggest correction
Give kudos to tab author, rate the tab!
1 2 3 4 5
comments
print report bad tab
guest
You may want to rate the tab now too:
select rating
Wanna post a correction for this tab? Suggest correction