Oops, an error
Loading. Please wait.

Eat That Up Its Good For You Tab

version 2
version 2

Whole song

Interactive

21,614 views 18 this week
1 commentread comment
1 2 3 4 5
x 9
add to favorites
launch autoscroll
font size
0
reset
how to read this tab
guitar tuner
Autoscroll
slow
fast
+/-
esc
set tempo
stop
Help us to improve Ultimate-Guitar.com Take our survey!
×
Author
Difficulty
intermediate
-------------------------------------------------------------------------------
        Eat that up, it's good for you - Two Door Cinema Club
-------------------------------------------------------------------------------
Tabbed by: Crossleylaw
Email: ptoby_lc@hotmail.com

To my ears, this is what Sam Halliday plays in this song, hope you like it and 
I leave here my mail if you need something.

Tuning: Standard

Intro (x2)
e|------------------------------------------------------|
B|------------------------------------------------------|
G|--12/14--14--14--12----12--17--17--17\14--14--14--14--|
D|------------------------------------------------------|
A|------------------------------------------------------|
E|------------------------------------------------------|

e|----------------------------------------17--|
B|--------------------------------------------|
G|--19\17--14--14--17--14--14--14/17--17------|
D|--------------------------------------------|
A|--------------------------------------------|
E|--------------------------------------------|


Verse 1
e|--17--17--15--15----------13----------13------13------17--|
B|------------------18--15------15--15------15------15------|
G|----------------------------------------------------------|
D|----------------------------------------------------------|
A|----------------------------------------------------------|
E|----------------------------------------------------------|

e|--17--17--15--15------------------------|
B|------------------18----------------18--|
G|----------------------14--15p14h15------|
D|----------------------------------------|
A|----------------------------------------|
E|----------------------------------------|

e|-----------------------------------------------|
B|-----------------------------------------------|
G|--12h14p12h14----------14--12----14--12--14----|
D|---------------12--12--------------------------|
A|-----------------------------------------------|
E|-----------------------------------------------|
                                                  x 2
e|----------------------------15--15--15---------|
B|----------13------13---------------------------|
G|------14------14------14-----------------------|
D|--15-------------------------------------------|
A|-----------------------------------------------|
E|-----------------------------------------------|

Chorus 1
e|--------------------------------------------------------|
B|--------------------------------------------------------|
G|--12/14--14--14--12----12--17--17--17\14--14--14--14----|
D|--------------------------------------------------------|
A|--------------------------------------------------------|
E|--------------------------------------------------------|
                                                           x 2
e|----------------------------------------17--------------|
B|--------------------------------------------------------|
G|--19\17--14--14--17--14--14--14/17--17------------------|
D|--------------------------------------------------------|
A|--------------------------------------------------------|
E|--------------------------------------------------------|

Verse 2
e|--17--17--15--15----------13----------13------13------17--|
B|------------------18--15------15--15------15------15------|
G|----------------------------------------------------------|
D|----------------------------------------------------------|
A|----------------------------------------------------------|
E|----------------------------------------------------------|

e|--17--17--15--15------------------------|
B|------------------18----------------18--|
G|----------------------14--15p14h15------|
D|----------------------------------------|
A|----------------------------------------|
E|----------------------------------------|

e|-----------------------------------------------|
B|-----------------------------------------------|
G|--12h14p12h14----------14--12----14--12--14----|
D|---------------12--12--------------------------|
A|-----------------------------------------------|
E|-----------------------------------------------|
                                                  x 2
e|----------------------------15--15--15---------|
B|----------13------13---------------------------|
G|------14------14------14-----------------------|
D|--15-------------------------------------------|
A|-----------------------------------------------|
E|-----------------------------------------------|

Chorus 2
e|------------------------------------------------------|
B|------------------------------------------------------|
G|--12/14--14--14--12----12--17--17--17\14--14--14--14--|
D|------------------------------------------------------|
A|------------------------------------------------------|
E|------------------------------------------------------|

e|----------------------------------------17--|
B|--------------------------------------------|
G|--19\17--14--14--17--14--14--14/17--17------|
D|--------------------------------------------|
A|--------------------------------------------|
E|--------------------------------------------|

e|---X---|---X---X---X--|
B|---X---|---X---X---X--|
G|--10---|--10--10--10--|
D|---X---|---X---X---X--|  X64
A|---X---|---X---X---X--|
E|---X---|---X---X---X--|

e|--------------17----------17-----------------------------|
B|--20--20--20------20--20------20--20--20-20--15--15--13--|
G|---------------------------------------------------------|  X16
D|---------------------------------------------------------|
A|---------------------------------------------------------|
E|---------------------------------------------------------|

************************************
| /   slide up
| \   slide down
| h   hammer-on
| p   pull-off
| ~   vibrato
| +   harmonic
| x   Mute note
| b   Bend
| pb  Pre-bend
| br  Bend release
| pbr Pre-bend release
| brb Bend release bend
************************************
 
Suggest correction
comments
print report bad tab
1 comment total.
0 reply
kellog 10 Apr 28, 2013 12:07 PM

This is good and all, but it sounds a bit lower. Like an octave or 2 lower.

guest
You may want to rate the tab now too:
select rating
Wanna post a correction for this tab? Suggest correction