Oops, an error
Loading. Please wait.

Gameshow Bass

1,090 views 15 this week
no commentswrite comment
1 2 3 4 5
x 6
add to favorites
×
Save as Personal and add changes to this tab that will be seen only by you. Learn more ›
×
You can save this tab as Personal to edit and correct it or add notes. All changes will be seen only by you. Learn more »
save as personal
new!
launch autoscroll
font size
0
reset
guitar tuner
Autoscroll
slow
fast
+/-
esc
set tempo
stop
Author
Difficulty
Tuning
intermediate
E A D G
About this tab version
This is the exact tab to the Album Version of Gameshow. You can listen to it here: https://www.youtube.com/watch?v=_YlROBjJ1sk. I tried to indicate the tempo as good as possible, but you should listen for yourself. Have fun playing :). Was this info helpful? Yes No
----------------------------------------------------------------------------------------------
Two Door Cinema Club - Gameshow
----------------------------------------------------------------------------------------------
Tabbed by: Beamen
 

[Intro] (Bass starts at 0:07)

G|-----------------|-----------------|-----------------|-----------------|
D|-----------------|-----------------|-----------------|-----------------|
A|-7-7---7-7-7---7-|-7-7---7-7-7---7-|-7-7---7-7-7---7-|-7-7---7-7-7---7-|
E|-----------------|-----------------|-----------------|-----------------|


[Verse]

G|-----------------|---------------7-|-9---------------|---------------5-|-4-------------5-|
D|-----------------|-----------------|-----------------|-----------------|-----------------|
A|-7-7---7-7-7---7-|-7-7---7-7-7-----|---7---7-7-7---7-|-7-7---7-7-7-----|---3---3-3-3-----|
E|-----------------|-----------------|-----------------|-----------------|-----------------|

G|-7---------------|-----------------|-----------------|
D|-----------------|-----------------|-----------------|
A|-----------------|-7-7---7-7-7---7-|-7-7---7-7-7---7-|
E|---5---5-5-5---5-|-----------------|-----------------|(x2) Don't play the last note on the second time


[Chorus]

G|-----------------|-----------------|-----------------|-----------------|
D|-----------------|-----------------|-----------------|-----------------|
A|-3-3-3-3-3-3-3-3-|-7-7-7-7-7-7-7-7-|-3-3-3-3-3-3-3-3-|-7-7-7-7-7-7-7-7-|
E|-----------------|-----------------|-----------------|-----------------|

G|-----------------|---------14-12-------|-------------------------|-------------------------|
D|-----------------|---------------14-12-|-14-14-14-14-14-14-14-14-|-14-14-14-14-14-14-14-14-|
A|-5-5-5-5-5-5-5-5-|-3-3-3-3-------------|-------------------------|-------------------------|
E|-----------------|---------------------|-------------------------|-------------------------|

G|-----------------|-----------------|-----------------|-----------------|
D|-----------------|-----------------|-----------------|-----------------|
A|-3-3-3-3-3-------|-----------------|-3-3-3-3-3-------|-----------------|
E|-----------3-5-3-|-5-0-0-0-0-0-0-0-|-----------3-5-3-|-5-0-0-0-0-0-0-0-|

G|-----------------|-----------------|-----------------|-----------------|
D|-----------------|-----------------|-----------------|-----------------|
A|-5-5-5-5-5-5-5-5-|-3-3-3-3-5-5-5-5-|-7-7-7-7-7-7-7-7-|-7-7-7-7-7-7-7-7-|
E|-----------------|-----------------|-----------------|-----------------|


[Verse]

G|-----------------|---------------7-|-9---------------|---------------5-|-4-------------5-|
D|-----------------|-----------------|-----------------|-----------------|-----------------|
A|-7-7---7-7-7---7-|-7-7---7-7-7-----|---7---7-7-7---7-|-7-7---7-7-7-----|---3---3-3-3-----|
E|-----------------|-----------------|-----------------|-----------------|-----------------|

                                       1.                2.     
G|-7---------------|-----------------|-----------9-9-9-|-----------------|
D|-----------------|-----------------|-----------------|-----------------|
A|-----------------|-7-7---7-7-7---7-|-7-7---7-7-------|-7-7---7-7-7-----|
E|---5---5-5-5---5-|-----------------|-----------------|-----------------|


[Chorus]

G|-----------------|-----------------|-----------------|-----------------|
D|-----------------|-----------------|-----------------|-----------------|
A|-3-3-3-3-3-3-3-3-|-7-7-7-7-7-7-7-7-|-3-3-3-3-3-3-3-3-|-7-7-7-7-7-7-7-7-|
E|-----------------|-----------------|-----------------|-----------------|

G|-----------------|---------14-12-------|-------------------------|---------------------------|
D|-----------------|---------------14-12-|-14-14-14-14-14-14-14-14-|-14-14-14-14-14-14-14-14\5-|
A|-5-5-5-5-5-5-5-5-|-3-3-3-3-------------|-------------------------|---------------------------|
E|-----------------|---------------------|-------------------------|---------------------------|

G|-----------------|-----------------|-----------------|-----------------|
D|-----------------|-----------------|-----------------|-----------------|
A|-3-3-3-3-3-------|-----------------|-3-3-3-3-3-------|-----------------|
E|-----------3-5-3-|-5-0-0-0-0-0-0-0-|-----------3-5-3-|-5-0-0-0-0-0-0-0-|

G|-----------------|-----------------|-----------------|-----------------|
D|-----------------|-----------------|-----------------|-----------------|
A|-5-5-5-5-5-5-5-5-|-3-3-3-3-5-5-5-5-|-7-7-7-7-7-7-7-7-|-7-7-7-7-7-7-7-7-|
E|-----------------|-----------------|-----------------|-----------------|

Only Guitar till 2:32

[Bridge]

G|---------------------|----------------------|-----------------------|-------------------------|
D|---------------------|-------------------14-|-----------------------|-------------------------|
A|-15-----15---15---14-|-17-17---17---17------|-12-12---10-12-12---10-|-12-10-12-10-12-10-12-10-|
E|---------------------|----------------------|-----------------------|-------------------------|

G|-----------------|-----------------|-----------------|-----------------|
D|-----------------|-----------------|-----------------|-----------------|
A|-9-9-9-9-9-9-9-9-|-9-9-9-9-9-9-9-9-|-8-8-8-8-8-8-8-8-|-8-8-8-8-8-8-8-8-|
E|-----------------|-----------------|-----------------|-----------------|


[Chorus]

G|-----------------|-----------------|-----------------|-----------------|
D|-----------------|-----------------|-----------------|-----------------|
A|-3-3-3-3-3-3-3-3-|-7-7-7-7-7-7-7-7-|-3-3-3-3-3-3-3-3-|-7-7-7-7-7-7-7-7-|
E|-----------------|-----------------|-----------------|-----------------|

G|-----------------|-----------------|-----------------|-----------------|
D|-----------------|-----------------|-----------------|-----------------|
A|-5-5-5-5-5-5-5-5-|-3-3-3-3-5-5-5-5-|-7-7-7-7-7-7-7-7-|-7-7-7-7-7-7-7-7-|
E|-----------------|-----------------|-----------------|-----------------|

G|-----------------|-----------------|-----------------|-----------------|
D|-----------------|-----------------|-----------------|-----------------|
A|-3-3-3-3-3-------|-----------------|-3-3-3-3-3-------|-----------------|
E|-----------3-5-3-|-5-0-0-0-0-0-0-0-|-----------3-5-3-|-5-0-0-0-0-0-0-0-|

G|-----------------|-----------------|-----------------|-----------------|
D|-----------------|-----------------|-----------------|-----------------|
A|-5-5-5-5-5-5-5-5-|-3-3-3-3-5-5-5-5-|-7-7-7-7-7-7-7-7-|-7-7-7-7-7-7-7-7-|
E|-----------------|-----------------|-----------------|-----------------|

G|-----------------|-----------------|-----------------|-----------------|
D|-----------------|-----------------|-----------------|-----------------|
A|-3-3-3-3-3-------|-----------------|-3-3-3-3-3-------|-----------------|
E|-----------3-5-3-|-5-0-0-0-0-0-0-0-|-----------3-5-3-|-5-0-0-0-0-0-0-0-|

G|-----------------|-----------------|-----------------|-----------------|
D|-----------------|-----------------|-----------------|-----------------|
A|-5-5-5-5-5-5-5-5-|-3-3-3-3-5-5-5-5-|-7-7-7-7-7-7-7-7-|-7-7-7-7-7-7-7-7-|
E|-----------------|-----------------|-----------------|-----------------|

Have fun playing!
Suggest correction
comments
print report bad tab
guest
You may want to rate the tab now too:
select rating
Wanna post a correction for this tab? Suggest correction