Oops, an error
Loading. Please wait.

Gameshow Tab

331 views 33 this week
no commentswrite comment
1 2 3 4 5
2 more votes to show rating
add to favorites
launch autoscroll
font size
0
reset
how to read this tab
guitar tuner
Autoscroll
slow
fast
+/-
esc
set tempo
stop
Help us to improve Ultimate-Guitar.com Take our survey!
×
Author
Difficulty
intermediate
About this tab version
This version is just sam's (the lead guitarist's) part. Was this info helpful? Yes No
[Intro]

Cuts in twice during the intro at 0:11 and 0:25
e|-----|
B|-9---|
G|-9---|
D|-9---|
A|-----|
E|-----|

[Pre-Chorus]

e|-------------------------|
B|-10-12-8--8-10-12-10-8-8-|
G|-------------------------| x2
D|-------------------------|
A|-------------------------|
E|-------------------------|

[Chorus] 

e|-----------------------17-15---17-15-17------|
B|-10----12----15----17-------17---------17-17-|
G|---------------------------------------------|
D|---------------------------------------------|
A|---------------------------------------------|
E|---------------------------------------------|

e|-17-15---17-15-17-------|
B|------17---------17-17--|
G|------------------------|
D|------------------------|
A|------------------------|
E|------------------------|

[Verse]

e|-12-12-10-12---------10-----------12-12-10-12-----10---14-10---------------|
B|---------12-12-10-12----12--10-12------------12-12--12---------------------|
G|---------------------------------------------------------------------------|
D|---------------------------------------------------------------------------|
A|---------------------------------------------------------------------------|
E|---------------------------------------------------------------------------|


e|---------------------------------------------------------------------------|
B|---------------------------------------------------------------------------|
G|-7-7-7-7-7--9---7-7\15/7-7-7-7-9--9-9-9------------------------------------|
D|----------------------------------------9-9-9-7-7--7h9/2--2\12/2\15--------|
A|---------------------------------------------------------------------------|
E|---------------------------------------------------------------------------|

[Pre-chorus]

e|-------------------------|
B|-10-12-8--8-10-12-10-8-8-|
G|-------------------------| x2
D|-------------------------|
A|-------------------------|
E|-------------------------|

[Chorus]

e|-----------------------17-15---17-15-17------|
B|-10----12----15----17-------17---------17-17-|
G|---------------------------------------------|
D|---------------------------------------------|
A|---------------------------------------------|
E|---------------------------------------------|

e|-17-15---17-15-17-------|
B|------17---------17-17--|
G|------------------------|
D|------------------------|
A|------------------------|
E|------------------------|

[Restart]

e|--------------------|
B|--------------------|
G|--------------------| 
D|--------------------|
A|--------------------|
E|-0-0--0-0-0--0-0-0--|

[Pre-chorus]

e|-------------------------|
B|-10-12-8--8-10-12-10-8-8-|
G|-------------------------| x2
D|-------------------------|
A|-------------------------|
E|-------------------------|

[Chorus]

e|-----------------------17-15---17-15-17------|
B|-10----12----15----17-------17---------17-17-|
G|---------------------------------------------|
D|---------------------------------------------|
A|---------------------------------------------|
E|---------------------------------------------|

e|-17-15---17-15-17-------|
B|------17---------17-17--|
G|------------------------|
D|------------------------|
A|------------------------|
E|------------------------|

Finish it off with an extra one of these.

e|-17-15---17-15-17--------|
B|------17---------17-17---|
G|-------------------------|
D|-------------------------|
A|-------------------------|
E|-------------------------|



************************************
| h   Hammer-on
| /   Slide up
| \   Slide down
|
************************************
Suggest correction
Give kudos to tab author, rate the tab!
1 2 3 4 5
comments
print report bad tab
guest
You may want to rate the tab now too:
select rating
Wanna post a correction for this tab? Suggest correction