Oops, an error
Loading. Please wait.

Gameshow Chords

version 2
version 2

Whole song

  • Chords are right according to the live on Jimmy Ki... Show more
313 views 9 this week
no commentswrite comment
1 2 3 4 5
3 more votes to show rating
add to favorites
launch autoscroll
font size
0
reset
transpose
0
reset
simplify chords
display chords
guitar tuner
×
Best way to learn
"Gameshow"
Autoscroll
slow
fast
+/-
esc
set tempo
stop
Author
Difficulty
  follow
intermediate
Two Door Cinema Club - Gameshow

Chords by Simon Kelly

No Capo
Standard Tuning

GAGAE in the Chorus and Outro is a barre slide from G/A\G/A\E in quick succession, easy to hear in the song.


     Em    C     D     G     A     E     Am/E D7/F#  Am/F   Cmaj  Gadd4 Am    F#m   F     D7
e|---7-----3-----5-----3-----5-----0-----x-----x-----x------0-----3-----0-----2-----1-----5---|
B|---8-----5-----7-----3-----5-----0-----10----10----10-----1-----1-----1-----2-----1-----7---|
G|---9-----5-----7-----4-----6-----1-----9-----7-----9------0-----0-----2-----2-----2-----5---|
D|---9-----5-----7-----5-----7-----2-----10----10----10-----2-----0-----2-----4-----3-----7---|
A|---7-----3-----5-----5-----7-----2-----7-----9-----8------3-----2-----0-----4-----3-----x---|
E|---7-----3-----5-----3-----5-----0-----x-----x-----x------x-----3-----x-----2-----1-----x---|


[Intro]
e|---------------------------------------------------------------|
B|---------------------------------------------------------------|
G|---------------------------------------------------------------|
D|---------------------------------------------------------------|
A|---------------------------------------------------------------|
E|--0-0---0-0-0---0-0-0---0-0-0---0-0-0---0-0-0---0-0-0---0-0-0--|



[Verse 1]
Em  
       And then I drew my line,
Em                             C
       Oh what a twisted crime,
                          D                        Em  
       Sink, float, sink, float, sink, float, sink.
Em  
       In pursuit of looking good,
Em                                       C
       You must do everything you should,
                        D               Em  
       Why think? Don't think, why? Why?


[Chorus 1]

C    Em  
       Sing to me,
C    Em         
       You're so pretty,
D                      C            D        Em  
       I'm a girl, I'm a ghost, I'm a gameshow.
C G/A\G/A\E
       Nobody wants me!
C G/A\G/A\E 
       Fried over easy
D                    C       D       Em   
       Say my name, name, insane, insane!


e|---------------------------------------------------------------|
B|---------------------------------------------7-----9-9-9-------|
G|---9-7-9-----------7--------9--9-7-9-----7-----9---9-9-9-------|
D|---------9--9--7-9---9--7-9----------9-9---9-------9-9-9-------|
A|---------------------------------------------------------------|
E|---------------------------------------------------------------|


[Verse 2]
Em  
       I'm Lynchian dream,
Em  
       I'm made of plasticine,
C                       D                   Em  
       I'm a Pinocchio, broken nose, let me go.
Em  
       I'll be the souvenir,
Em  
       Of this cheap champagne year,
C                D                   Em  
       Spill the bubbles on designer clothes.


[Chorus 2]

C    Em  
       Sing to me,
C    Em         
       You're so pretty,
D                      C            D        Em  
       I'm a girl, I'm a ghost, I'm a gameshow.
C G/A\G/A\E
       Nobody wants me!
C G/A\G/A\E
       Fried over easy
D                    C       D       Em   
       Say my name, name, insane, insane!


[Bridge]
Am/E
       I don't know what to wear,
D7/F#
       I can't go over there,
Am/F                   D7
       Well let's talk afterwards.
       C                  Gadd4            Am
       Somehow this strange love makes it easier.
F#m
       Just give me something, anything to live by,
F
       My blood is pumping so fast I've forgotten why I try

e|---------------------------------------------------------------|
B|---------------------------------------------------------------|
G|---------------------------------------------------------------|
D|---------------------------------------------------------------|
A|---------------------------------------------------------------|
E|--0-0---0-0-0---0-0-0---0-0-0----------------------------------|


[Chorus 3]

C    Em  
       Sing to me,
C    Em         
       You're so pretty,
D                      C            D        Em  
       I'm a girl, I'm a ghost, I'm a gameshow.
C G/A\G/A\E
       Nobody wants me!
C G/A\G/A\E    
       Fried over easy
D                    C       D       Em   
       Say my name, name, insane, insane!

[Outro]

C G/A\G/A\E

C G/A\G/A\E

D   C D Em  
Suggest correction
Give kudos to tab author, rate the tab!
1 2 3 4 5
comments
print report bad tab
guest
You may want to rate the tab now too:
select rating
Wanna post a correction for this tab? Suggest correction