Oops, an error
Loading. Please wait.

I Can Talk Tab

version 1
version 1

Whole song

Interactive

51,229 views 36 this week
2 commentsread comments
1 2 3 4 5
x 10
add to favorites
launch autoscroll
font size
0
reset
how to read this tab
guitar tuner
Autoscroll
slow
fast
+/-
esc
set tempo
stop
Help us to improve Ultimate-Guitar.com Take our survey!
×
Author
Difficulty
intermediate
-------------------------------------------------------------------------------
        I Can Talk - Two Door Cinema Club
-------------------------------------------------------------------------------

Tabbed by: Crossleylaw
Email: ptoby_lc@hotmail.com

I made this tab by ear and it's based on the CD track, because the live 
version is kind of different in the chorus and the picking part,but at last 
is the same. You just have to follow the right time in the instrumental 
part and thats it, hope you like it!

Tuning: Standard


[Intro]
e|------------15.--17.--20.-----------------------|
B|--13.--17.-----------------17.--18--17--18--17--|
G|------------------------------------------------|
D|------------------------------------------------|
A|------------------------------------------------|
E|------------------------------------------------|

e|------------------------17.------15.--|
B|--13.--17.----------------------------|
G|------------12/14--14.-------14.------|
D|--------------------------------------|
A|--------------------------------------|
E|--------------------------------------|

[Verse 1]
e|---X------X-----19-----20--|
B|--17-----15------X------X--|
G|--16-----16------X------X--| 
D|---X------X-----16-----17--|
A|--14-----14------X------X--|
E|---X------X------X------X--|(x2)

[Chorus 1] (x2)
e|------------15.--17.--20.-----------------------|
B|--13.--17.-----------------17.--18--17--18--17--|
G|------------------------------------------------|
D|------------------------------------------------|
A|------------------------------------------------|
E|------------------------------------------------|

e|------------------------17.------15.--|
B|--13.--17.----------------------------|
G|------------12/14--14.-------14.------|
D|--------------------------------------|
A|--------------------------------------|
E|--------------------------------------|

[Verse 2]
e|------19.--15.----0--+24------19.--|
B|--17----------------------15-------|
G|-----------------------------------|
D|-----------------------------------|
A|-----------------------------------|
E|-----------------------------------|

e|---X------X-----19-----20--|
B|--17-----15------X------X--|
G|--16-----16------X------X--|
D|---X------X-----16-----17--|
A|--14-----14------X------X--|
E|---X------X------X------X--|(x2)

[Chorus 2] (x2)
e|------------15.--17.--20.-----------------------|
B|--13.--17.-----------------17.--18--17--18--17--|
G|------------------------------------------------|
D|------------------------------------------------|
A|------------------------------------------------|
E|------------------------------------------------|

e|------------------------17.------15.--|
B|--13.--17.----------------------------|
G|------------12/14--14.-------14.------|
D|--------------------------------------|
A|--------------------------------------|
E|--------------------------------------|

[Instrumental]
e|------------17--|
B|----------------|
G|-----14---------|  
D|----------------|
A|--0------0------|
E|----------------|(x4)

e|-----------17------------------------------15--|
B|------------------15\13------------13--13------|
G|----14-------------------14\12/14--------------|
D|-----------------------------------------------|
A|-0------0------0-------------------------------|
E|-----------------------------------------------|
                                                       (x2)
e|------------17------------------------15--15/17------|
B|-------------------17\15--13---------------------17--|
G|-----14-----------------------14--14-----------------|
D|-----------------------------------------------------|
A|--0------0------0------------------------------------|
E|-----------------------------------------------------|

e|------------17--------------17----15.--|
B|---------------------------------------|
G|-----14--------------14----------------| 
D|---------------------------------------|
A|--0------0--------0------0-------------|
E|---------------------------------------|

[Chorus 3] (x2)

e|------------15.--17.--20.-----------------------|
B|--13.--17.-----------------17.--18--17--18--17--|
G|------------------------------------------------|
D|------------------------------------------------|
A|------------------------------------------------|
E|------------------------------------------------|

e|------------------------17.------15.--|
B|--13.--17.----------------------------|
G|------------12/14--14.-------14.------|
D|--------------------------------------|
A|--------------------------------------|
E|--------------------------------------|

e|--17--|
B|------|
G|------|
D|------|
A|------|
E|------|
 

************************************

| /  Slide up
| \  Slide down
| +  harmonic
| .  Picking 
| x  Mute note

************************************
Suggest correction
comments
print report bad tab
2 comments total.
0 reply
gustavoaraujo9 2,692 Oct 28, 2013 05:38 PM

The second verse can be played in natural harmonics:

G|---------5~-----7~-----------------|
D|--5~-------------------------------|
A|----5~------7~---------------------|
E|-----------------------------------|
G|-----------------------------------|
D|-----------------------------------|

0 reply
gustavoaraujo9 2,692 Oct 28, 2013 05:57 PM

Also, the bridge for the other guitar:

e|-------------------|------------------------|
B|-------------------|------------------------|
G|-----------7-9-----|------------12-9--------|
D|-0-7-0-10----------|--0-7-0-10--------------|
A|--------------[x4]-|-----------------[x8]---|
E|-------------------|------------------------|

There's more, but it's just a variation on this.

Great tab.

guest
You may want to rate the tab now too:
select rating
Wanna post a correction for this tab? Suggest correction