Oops, an error
Loading. Please wait.

I Can Talk Bass Tab

version 2
version 2

Whole song

Interactive

4,415 views 3 this week
1 commentread comment
1 2 3 4 5
accurate
x 4
add to favorites
launch autoscroll
font size
0
reset
guitar tuner
Tab Pro tools
  • play this tab
  • loop segment
  • change instrument
  • show fretboard
  • metronome
×
Best way to learn
"I Can Talk"
Autoscroll
slow
fast
+/-
esc
set tempo
stop
Contributor
Difficulty
intermediate
Artist: Two Door Cinema Club

Album: Tourist History

Song: I Can Talk


Intro

G||--------------------|----------------5---|
D||--------------------|--------------------|
A||----------------7-5-|-3----3----3--------|
E||-5----5----5--------|--------------------|

G||--------------------|----------------5---||
D||-3----3----3--------|-------------7----7-||  x2
A||-------------3--5-3-|-5----5----5--------||
E||--------------------|--------------------||


Verse

G||--------------------|-------------------------|
D||--------------------|-------------------------|
A||--------------------|-------------------------|
E||-5-5--5-5--5-5--5-5-|-5-5--5-5/--12-12--12-12-|

G||----------------------------|--------------------||
D||----------------------------|--------------------||  x2
A||----------------------------|--------------------||
E||-10-10--10-10--10-10--10-10-|-8-8--8-8----8----8-||


G||--------------------|---------------------|
D||--------------------|---------------------|
A||--------------------|--------7------------|
E||-5----5----5----5---|-5----5----5/---12---|

G||------------------------|----------------------|
D||------------------------|-------------10----10-|
A||------------------------|----------------------|
E||-10----10----10----10---|-8----8----8-----8----|

G||--------------------|---------------------|
D||--------------------|---------------------|
A||--------------------|---------------------|
E||-5----5----5----5---|-5----5----5/---12---|

G||------------------------|----------------------|
D||------------------------|-------------10----10-|
A||------------------------|----------------------|
E||-10----10----10----10---|-8----8----8-----8----|


Chorus

G||--------------------|--------------------|
D||--------------------|--------------------|
A||-0-0--0-0--0-7--7-5-|-3-3--3-3--3-3--3-3-|
E||--------------------|--------------------|

G||--------------------|----------------5---||
D||-3-3--3-3--3--------|-------------7----7-||  x4
A||-------------3--5-3-|-5-5--5-5--5--------||
E||--------------------|--------------------||


Verse 2

G||--------------------|-------------------------|
D||--------------------|-------------------------|
A||--------------------|-------------------------|
E||-5-5--5-5--5-5--5-5-|-5-5--5-5/--12-12--12-12-|

G||----------------------------|--------------------||
D||----------------------------|--------------------||  x2
A||----------------------------|--------------------||
E||-10-10--10-10--10-10--10-10-|-8-8--8-8----8----8-||


G||--------------------|---------------------|
D||--------------------|---------------------|
A||--------------------|--------7------------|
E||-5----5----5----5---|-5----5----5/---12---|

G||------------------------|----------------------|
D||------------------------|-------------10----10-|
A||------------------------|----------------------|
E||-10----10----10----10---|-8----8----8-----8----|

G||--------------------|---------------------|
D||--------------------|---------------------|
A||--------------------|---------------------|
E||-5----5----5----5---|-5----5----5/---12---|

G||------------------------|----------------------|
D||------------------------|-------------10----10-|
A||------------------------|----------------------|
E||-10----10----10----10---|-8----8----8-----8----|


Chorus 2

G||--------------------|--------------------|
D||--------------------|--------------------|
A||-0-0--0-0--0-7--7-5-|-3-3--3-3--3-3--3-3-|
E||--------------------|--------------------|

G||--------------------|----------------5---||
D||-3-3--3-3--3--------|-------------7----7-||  x4
A||-------------3--5-3-|-5-5--5-5--5--------||
E||--------------------|--------------------||


Outro

G||---------------------|---------------------|
D||--------------10-----|---------------------|
A||-0----0----0------12-|--------------10--12-|
E||---------------------|-8----8----8---------|

G||-------------------|---------------------||
D||-------------------|------------------10-||  x4
A||--------------7--8-|-5----5----5--12-----||
E||-1----1----1-------|---------------------||


Chorus 2

G||--------------------|--------------------|
D||--------------------|--------------------|
A||-0-0--0-0--0-7--7-5-|-3-3--3-3--3-3--3-3-|
E||--------------------|--------------------|

G||--------------------|----------------5---||
D||-3-3--3-3--3--------|-------------7----7-||  x4
A||-------------3--5-3-|-5-5--5-5--5--------||
E||--------------------|--------------------||

G||--------------------|
D||-7------------------|
A||--------------------|
E||--------------------|


tab by: Pedro Zappa
comments
print report bad tab
1 comment total.
0 reply
gustavoaraujo9 wrote on January 15 2014, 09:05 am

5*, beautiful tab.

That said, I think the third measure of the intro is off by an octave.

Intro
G||--------------------|----------------5---|
D||--------------------|--------------------|
A||-0----0----0----7-5-|-3----3----3--------|
E||--------------------|--------------------|

G||-------------5--7-5-|----------------5---||
D||-3----3----3--------|-0----0----0-7----7-|| x2
A||--------------------|--------------------||
E||--------------------|--------------------||

Also, the outro can be made easier by moving the notes down the fretboard.

Outro
G||--------------5------|--------------0---2--|
D||----------------7----|---------------------|
A||-0----0----0---------|-3----3----3---------|
E||---------------------|---------------------|

G||-------------------|------------------5--||
D||--------------2--3-|-0----0----0--7------|| x4
A||-------------------|---------------------||
E||-1----1----1-------|---------------------||

I want to post or [tab]
guest
You may want to rate the tab now too:
select rating
Please do not post tabs as comments. Select "correction" instead!